Song name
# A B C D E F G H I J K L M N O P Q R S T U V W X Y Z

Shannon And The Clams - Hunk Hunt tab

http://www.myspace.com/shannonandtheclams
http://www.youtube.com/watch?v=-ZyCSHUFHu4


hi ...........Andrew again..............this is my tab for HUNK HUNT by SHANNON AND THE CLAMS

....THIS IS A KILLER SONG

HAVE FUN!!!!!!!!!!!!!!!!!!!!!!!!!!!!!!!!!!

:)

VERSE

B Bb/A#  A   Ab/G# E  G#

E|-7-7-7-7-7-6-5-5-5-5-5-4-0-0-0-0-0-4-4-4-4-4-------------------|
B|-7-7-7-7-7-6-5-5-5-5-5-4-0-1-1-1-1-4-4-4-4-4-------------------|
G|-8-8-8-8-8-7-6-6-6-6-6-5-1-1-1-1-1-5-5-5-5-5-------------------|
D|-9-9-9-9-9-8-7-7-7-7-7-6-2-2-2-2-2-6-6-6-6-6-------------------|
A|-9-9-9-9-9-8-7-7-7-7-7-6-2-2-2-2-2-6-6-6-6-6-------------------|
E|-7-7-7-7-7-6-5-5-5-5-5-4-0-0-0-0-0-4-4-4-4-4-------------------|


FUNNY FILL
E|--3b-0-----0---------------------------------------------------|
B|-------3--00---------------------------------------------------|
G|---------------------------------------------------------------|
D|---------------------------------------------------------------|
A|---------------------------------------------------------------|
E|---------------------------------------------------------------|

CHORUS

B D              G B

E|-------------------------------3-3-3---7-----------------------|
B|-------------------------------3-3-3---7-----------------------|
G|---4-4-4-4-4--7----------------4-4-4---8-----------------------|
D|---4-4-4-4-4--7----X2----------5-5-5---9------X2---------------|
A|---2-2-2-2-2--5----------------5-5-5---9-----------------------|
E|-------------------------------3-3-3---7-----------------------|


COOL SOLO

E|---------------------------------------------------------------|
B|---------------------------------------------------------------|
G|----------------7-9-999-9s11-9-7------------------7-9-999------|
D|---9-999-7-99-9-----------------9-7--9-999-7-99-9--------------|
A|---------------------------------------------------------------|
E|---------------------------------------------------------------|

E|-----------------------7-9-10-10s9---------7-9s12-10-9---------|
B|---7-7s10-7----7-8-888--------------7--777---------------------|
G|------------9--------------------------------------------------|
D|---------------------------------------------------------------|
A|---------------------------------------------------------------|
E|---------------------------------------------------------------|

E|-----------7-7-10-10----7-6-5-4--------------------------------|
B|----8--888--------------7-6-5-4--------------------------------|
G|------------------------8-7-6-5--------------------------------|
D|------------------------9-8-7-6--------------------------------|
A|------------------------9-8-7-6--------------------------------|
E|------------------------7-6-5-4--------------------------------|


THEN BASICALLY THAT OTHER STUFF OVER AGAIN THIS IS MY 4TH PUBLISHED TAB....HOPEFULLY IT 
IS HELPFUL TO ALL YOU OTHER SHANNON AND THE CLAMS FANS.......ROCK ON! :)

ANDREW SEBASTIAN ARRIOLA
Tap to rate this tab
 
# A B C D E F G H I J K L M N O P Q R S T U V W X Y Z