Song name
# A B C D E F G H I J K L M N O P Q R S T U V W X Y Z

Shannon And The Clams - The Cult Song tab

-------------------------------------------------------------------------------
		                        THE CULT SONG - Shannon and the Clams
-------------------------------------------------------------------------------
Tabbed by: DPL
Email: nizibian@gmail.com

Tuning: Standard (EADGBe)

e|---------------------------------------------------------------------------|
B|---------------------------------------------------------------------------|
G|---------------------------------------------------------------------------|
D|---------------------------------------------------------------------------|
A|---------------------------------------------------------------------------|
E|-1-1-1-1-1-1-1-1-1-1-1-1-1-1-1-0-------------------------------------------|


e|---------------------------------------------------------------------------|
B|---------------------------------------------------------------------------|
G|---------------------------------3-3-3-3-3-3-3-3-5-5-5-5-5-5-5-5-----------|
D|---------------------------------3-3-3-3-3-3-3-3-5-5-5-5-5-5-5-5-----------|
A|---------------------------------1-1-1-1-1-1-1-1-3-3-3-3-3-3-3-3-----------|
E|-1-1-1-1-1-1-1-1-1-1-1-1-1-1-1-1-------------------------------------------|

e|---------------------------------------------------------------------------|
B|-----------------5-5-5-5-5-5-5-5-------------------------------------------|
G|-2-2-2-2-2-2-2-2-5-5-5-5-5-5-5-5-------------------------------------------|
D|-3-3-3-3-3-3-3-3-5-5-5-5-5-5-5-5-------------------------------------------|
A|-3-3-3-3-3-3-3-3-3-3-3-3-3-3-3-3-------------------------------------------|
E|-1-1-1-1-1-1-1-1-----------------------------------------------------------|

e|---------------------------------------------------------------------------|
B|-6-6-6-6-6-6-6-6-6-6-6-6-6-6-5-5---6---------------------------------------|
G|-6-6-6-6-6-6-6-6-6-6-6-6-6-6-5-5---6---6-6--6-6----------------------------|
D|-6-6-6-6-6-6-6-6-6-6-6-6-6-6-5-5---6---6-6--6-6----------------------------|
A|-4-4-4-4-4-4-4-4-4-4-4-4-4-4-3-3---4---4-4--4-4----------------------------|
E|---------------------------------------------------------------------------|



e|---------------------------------------------------------------------------|
B|---------------------------------------------------------------------------|
G|---------------------------------------------------------------------------|
D|-3-3-3-3-3-3-3-3-3-3-3-3-3-3-3-3-3-3-3-3-3333-3-3-3-3-3-3-33-3-3-3---------|
A|-3-3-3-3-3-3-3-3-3-3-3-3-3-3-3-3-3-3-3-3-3333-3-3-3-3-3-3-33-3-3-3---------|
E|-1-1-1-1-1-1-1-1-1-1-1-1-1-1-1-1-1-1-1-1-1111-1-1-1-1-1-1-11-1-1-1---------|
  


e|---------------------------------------------------------------------------|
B|---------------------------------3-3-3-3-3-3-3-3-5-5-5-5-5-5-5-5-----------|
G|---------------------------------3-3-3-3-3-3-3-3-5-5-5-5-5-5-5-5-----------|
D|---------------------------------3-3-3-3-3-3-3-3-5-5-5-5-5-5-5-5-----------|
A|---------------------------------1-1-1-1-1-1-1-1-3-3-3-3-3-3-3-3-----------|
E|-1-1-1-1-1-1-1-1-1-1-1-1-1-1-1-1-------------------------------------------|

e|---------------------------------------------------------------------------|
B|---------------------------------3-3-3-3-3-3-3-3-5-5-5-5-5-5-5-5-----------|
G|-2-2-2-2-2-2-2-2-2-2-2-2-2-2-2-2-3-3-3-3-3-3-3-3-5-5-5-5-5-5-5-5-----------|
D|-3-3-3-3-3-3-3-3-3-3-3-3-3-3-3-3-3-3-3-3-3-3-3-3-5-5-5-5-5-5-5-5-----------|
A|-3-3-3-3-3-3-3-3-3-3-3-3-3-3-3-3-1-1-1-1-1-1-1-1-3-3-3-3-3-3-3-3-----------|
E|-1-1-1-1-1-1-1-1-1-1-1-1-1-1-1-1-------------------------------------------|


Outro:
e|-----------------------------------------------1----------------------------|
B|---------------------------------3------5------1----------------------------|
G|---------------------------------3------5------2----------------------------|
D|---------------------------------3------5------3----------------------------|
A|---------------------------------1------3------3----------------------------|
E|-1-1-1-1-1-1-1-1-1-1-1-1-1-1-1-1---------------1----------------------------|

Intro          x8
Verse          x4
Chorus         x3
Chorus (cont.) x1
Intro          x2
Verse          x4
Chorus         x3
Chorus (cont.) x1
Verse (var. 1) x3
Verse (var. 2) x1
Verse (var. 3) x3
Verse (var. 2) x1
Outro          x1
************************************

| /   slide up
| \   slide down
| h   hammer-on
| p   pull-off
| ~   vibrato
| +   harmonic
| x   Mute note
| b   Bend
| pb  Pre-bend
| br  Bend release
| pbr Pre-bend release
| brb Bend release bend

************************************
Tap to rate this tab
# A B C D E F G H I J K L M N O P Q R S T U V W X Y Z