Song name
# A B C D E F G H I J K L M N O P Q R S T U V W X Y Z

Shannon And The Clams - You Will Always Bring Me Flowers tab

--------------------------------------------------------------------------------------
	              YOU WILL ALWAYS BRING ME FLOWERS - Shannon and the Clams
--------------------------------------------------------------------------------------
Tabbed by: DPL
Email: nizibian@gmail.com

Tuning: Standard (EADGBe)

Chorus:
e|----3-----------------------------------------------------------------------|
B|-----3-----5-5---7-7--------------------------------------------------------|
G|---4--4-4--5--5--7--7-------------------------------------------------------|
D|---5---5---5-----7----------------------------------------------------------|
A|---5-------3-----5----------------------------------------------------------|
E|-3-3------------------------------------------------------------------------|


Chorus (cont.):
e|-----3----------------------------------------------------------------------|
B|------3-----5-55-55--4-44-44--7-77-77---------------------------------------|
G|---4---4-4--5-55-55--5-55-55--7-77-77---------------------------------------|
D|---5----5---5-55-55--5-55-55--7-77-77--5-5-45-54-5-5-45---------------------|
A|---5--------3-33-33--3-33-33--5-55-55--5-5-45-54-5-5-45---------------------|
E|-3-3-----------------------------------3-3-23-32-3-3-23---------------------|


Verse:
e|----------------------------------------------------------------------------|
B|----------------------------------------------------------------------------|
G|----------------------------------------------------------------------------|
D|----------------------------------------------------------------------------|
A|-------------------------------2-3-333-2-3-333-2-3-333-2-3-2-3--------------|
E|-3-333-2-3-333-2-3-333-2-3-2-3----------------------------------------------|

e|----------------------------------------------------------------------------|
B|----------------------------------------------------------------------------|
G|----------------------------------------------------------------------------|
D|---------------------------------4-5-555-4-5-555-4-55-44-2------------------|
A|-4-5-555-4-5-555-4-5-555-4-5-4-5---------------------------5-2--------------|
E|---------------------------------------------------------------3------------|


Outro:
e|----------------------------------------------------------------------------|
B|--3-33-33--555-444----------------------------------------------------------|
G|--4-44-44--555-555----------------------------------------------------------|
D|--5-55-55--555-555----------------------------------------------------------|
A|--5-55-55--333-333----------------------------------------------------------|
E|--3-33-33-------------------------------------------------------------------|


Outro (cont.):
e|----------------------------------3-----------------------------------------|
B|-3-33-33--555-444-555-444-555-444-3-----------------------------------------|
G|-4-44-44--555-555-555-555-555-555-4-----------------------------------------|
D|-5-55-55--555-555-555-555-555-555-5-----------------------------------------|
A|-5-55-55--333-333-333-333-333-333-5-----------------------------------------|
E|-3-33-33--------------------------3-----------------------------------------|


Song order:

Chorus x5
Chorus (cont.) x1
Verse x3
Chorus x3
Chorus (cont.) x1
Verse x3
Chorus x3
Outro x8
Outro (cont.) x1


Notes:

This song is played pretty sloppy; there are lots of palm mutes, accidently-hit strings, 
and small note variations on many of the parts. During the verse, get louder and palm
mute less at the beginning of each time through and listen for variations on the third
time through. The chorus uses a lot of palm muting for that '50s-sounding arpeggiated
chord progression.

************************************

| /   slide up
| \   slide down
| h   hammer-on
| p   pull-off
| ~   vibrato
| +   harmonic
| x   Mute note
| b   Bend
| pb  Pre-bend
| br  Bend release
| pbr Pre-bend release
| brb Bend release bend

************************************
Tap to rate this tab
 
# A B C D E F G H I J K L M N O P Q R S T U V W X Y Z