Song name
# A B C D E F G H I J K L M N O P Q R S T U V W X Y Z

Shannon Wright - With Closed Eyes tab

-------------------------------------------------------------------------------

			     WITH CLOSED EYES - Shannon Wright

-------------------------------------------------------------------------------

Tabbed by: aGuyWith2ears

Tuning: D G D G B E  (Gadd6 tuning)
tune low E down to D and A string down to G

Tempo : approx. 128bpm
Time sign. : 3/4



Intro 
(Anyone want to arrange this mellotron ? these overdubbed flutes ?)


This is the most difficult part, the Main Riff : 
the notes on the 2 lower strings (the strings re-tuned to D and G) should 
be picked (yes PICKED, holding a pick between thumb and index finger, or 
using a thumbpick) leaving one of your other fingers to pluck the melody 
on the 4th string. Let those notes on the fourth string ring while
maintaining that percussive bass-line by hammering the 7th and 8th fret 
of the  G String and accentuating those open D and G stings.



Main Riff (play Main Riff 2 times during Verses)

    1  & 2  & 3  &
      /|   /|   /|
     / |  / |  / |
    |    |    |         etc...
    |    |    |
e|------------------|------------------|------------------|------------------|
B|------------------|------------------|------------------|------------------|
G|------------------|------------------|------------------|------------------|
D|----------8----8--|-----7----7----5--|----10---10---10--|----10---10---10\-|
G|------h7---h7-----|------h7----0-----|------h8---h8-----|------h8----0-----|
D|--0---------------|--0---------------|--0---------------|--0---------------|
Your eyes tarnished gold...

e|------------------|------------------|------------------|------------------|
B|------------------|------------------|------------------|------------------|
G|------------------|------------------|------------------|------------------|
D|----\8----8----8--|-----7----7----7--|----10---10---10--|----10---10---10\-|
G|------h7---h7-----|------h7----0-----|------h8---h8-----|------h8----0-----|
D|--0---------------|--0---------------|--0---------------|--0---------------|


Chorus 

(I'm not so sure about the low notes, just strum downwards   1  & 2  & 3  & )


    Gm                 D7                 Adim7


e|--3---------------|--2---------------|--5---------------|--5---------------|
B|--3---------------|--1---------------|--4---------------|--4---------------|
G|--3---------------|--2---------------|--5---------------|--5---------------|
D|--5---------------|--0---------------|--4---------------|--4---------------|
G|------------------|------------------|------------------|------------------|
D|------------------|------------------|------------------|------------------|
So save me...




Bridge 1

    Gmadd6             Gm7add6            A7                 C


e|--0---------------|--0---------------|--0---------------|--0---------------|
B|--8---------------|--3---------------|--2---------------|--5---------------|
G|--0---------------|--0---------------|--0---------------|--0---------------|
D|--8---------------|--3---------------|--2---------------|--5---------------|
G|--0---------------|--3---------------|--2---------------|--5---------------|
D|------------------|------------------|------------------|------------------|

    Gmadd6             Gm7add6            A7                 


e|--0---------------|--0---------------|--0---------------|--0---------------|
B|--8---------------|--3---------------|--2---------------|--2--3--5--3--2---|
G|--0---------------|--0---------------|--0---------------|--0---------------|
D|--8---------------|--3---------------|--2---------------|--2--3--5--3--2---|
G|--0---------------|--3---------------|--2---------------|--2---------------|
D|------------------|------------------|------------------|------------------|


Bridge 2 : just play Bridge 1 and add this:


e|------------------|------------------|
B|--2-------2-------|--2--3--5--3--2---|
G|----0-------0-----|------------------| repeat 3 times
D|--2----2--2---2---|--2--3--5--3--2---|
G|------------------|------------------|
D|------------------|------------------|
                  I won't do without you




A tip about the Main Riff :

I'm not sure about this but the hammered 7th and 8th fret notes could be hit 
from a few frets below like this :

G|-----5h7--5h7-----|-----5h7----0-----|-----7h8--7h8-----|-----7h8----0-----|
D|--0---------------|--0---------------|--0---------------|--0---------------|

or maybe mixed with 0h7 and 0h8


It doesn't make the playing easier but Shannon Wright probably uses some kind 
of loop machine to layer on the guitars after achieving the bass-line, 
I'm not sure.

Improvements are welcome, have fun.
Tap to rate this tab
 
# A B C D E F G H I J K L M N O P Q R S T U V W X Y Z