Song name
# A B C D E F G H I J K L M N O P Q R S T U V W X Y Z

Shannon Wright - Noise tab

tuning: standard

riff 1 (play each shape four times)

e---------------   -------------   -------------   -------------|
B---------3-----   -------0-----   -------0-----   -------0-----|
G-----4-4---4-4-   ---4-4---4-4-   ---2-2---2-2-   ---2-2---2-2-|
D---4-----------   -3-----------   -2-----------   -1-----------|
A---------------   -------------   -------------   -------------|
E---------------   -------------   -------------   -------------|

riff 2 ["Oh, carry the cost...] (play each shape four times)

e---------------   -------------   -------------|
B-----0---0---0-   ---0---0---0-   ---0---0---0-|
G---------------   -------------   -------------|
D-------0---0---   -----0---0---   -----0---0---|
A---------------   -------------   -------------|
E---7-----------   -5-----------   -3-----------|

ending

e---------------|
B-----0---0---0-|
G---------------|
D---------------|
A---0---1---2---|
E---------------|

e--------------------------------------------------|
B----0---0---0---2---2---2---3---3---3---2---3---2-|
G--------------------------------------------------|
D------0---0-------0---0-------0---0---------------|
A--2-----------4-----------5-----------4---5---4---|
E--------------------------------------------------|

e--------------------------------------------------|
B----6---6---6---5---5---5---6---6---6---8---6---5-|
G--------------------------------------------------|
D------0---0-------0---0-------0---0---------------|
A--8-----------7-----------8-----------10---8---7--|
E--------------------------------------------------|

e--------------------------------------------------|
B----0---0---0---2---2---2---3---3---3---2---3---2-|
G--------------------------------------------------|
D------0---0-------0---0-------0---0---------------|
A--2-----------4-----------5-----------4---5---4---|
E--------------------------------------------------|

e--------0-----------0-----------0--------|
B----6---6---6---5---5---5---6---6---0----|
G-----------------------------------------|
D------0---0-------0---0-------0---0------|
A--8-----------7-----------8-----------2--|
E-----------------------------------------|
Tap to rate this tab
 
# A B C D E F G H I J K L M N O P Q R S T U V W X Y Z