Song name
# A B C D E F G H I J K L M N O P Q R S T U V W X Y Z

Shaolin Temple Of Boom - Into Nothing tab

This is my very first tab.  Let me know what you guys think of it!

                _____________________________________
               |SHAOLIN TEMPLE OF BOOM - INTO NOTHING|
 ____________________
|Order:              |
|Cool Synth Intro    |
|Initial Riff X2     |
|Verse X4            |
|Chorus X2           |
|Clean Section I X2  |
|Verse X4            |
|Chorus X2           |
|Clean Section II X2 |
|____________________|


Initial Riff

Guitar 1 and Guitar 2

E|-----------------------------------|----------------------------------------|
B|-----------------------------------|----------------------------------------|
G|--8--------11------8--------6------|-8--------11------8-------6-------4-----|
D|--x-(X12)--x-(X4)--x-(X12)--x-(X4)-|-x-(X12)--x-(X4)--x-(X8)--x-(X4)--x-(X4)|
A|--6--------9-------6--------4------|-6--------9-------6-------4-------2-----|
D|-----------------------------------|----------------------------------------|

Verse

Guitar 1

E|-------------------|
B|-------------------|
G|-------------------|
D|--2~--6~--2~--6~---|
A|--2~--6~--2~--6~---|
D|--2~--6~--2~--6~---|

Guitar 2

E|-------------------|
B|-------------------|
G|--6-------4--------|
D|--x-(X4)--x-(X4)---|
A|--4-------2--------|
D|-------------------|

Chorus

Guitar 1 and Guitar 2

E|----------------------------|
B|----------------------------|
G|--6-------4--------2--------|
D|--6-(X12)-4-(X24)--2-(X12)--|
A|--4-------2--------0--------|
D|----------------------------|

Clean Section I

Guitar 1

E|----------------------------------|
B|----------------------------------|
G|--8-------11------8-------6-------|
D|--6-(X7)--9-(X2)--6-(X7)--4-(X4)--|
A|--6-------9-------6-------4-------|
D|----------------------------------|

Clean Section II

Guitar 1

E|----------------------------------|
B|----------------------------------|
G|--6-------11------7-------9-------|
D|--4-(X8)--9-(X8)--5-(X8)--7-(X8)--|
A|--4-------9-------5-------7-------|
D|----------------------------------|
Tap to rate this tab
# A B C D E F G H I J K L M N O P Q R S T U V W X Y Z