Song name
# A B C D E F G H I J K L M N O P Q R S T U V W X Y Z

Shape Of Despair - Angels Of Distress tab

Help us improve GuitareTab! Take a short survey!
Shape of Despair - Angel of Distress tabs

PK
     Gf3 Y  Y     05- Night's Dew.txt-------------------------
from : www.zonemetal.com
-------------------------

band: Shape Of Despair
album: Angels Of Distress
song: Night's Dew


Tabbed by: Chris Humeniuk 

Tuning: 2 steps down (C)

Note - There is only one riff in the entire song, but it is still a great
       song to end the CD, giving the feeling of hope before your casket
       is carried away and dropped six feet underground...

(Gtr 1)
     8x    8x   16x
||-----|-----|-----||
||-----|-----|-----||
||-----|--4--|-----||
||--2--|--4--|--5--||
||--2--|--2--|--5--||
||--0--|-----|--3--||

(Gtr 2)
     8x    8x   16x
||-----|-----|-----||
||-----|-----|-----||
||--9--|-11--|--7--||
||--9--|-11--|--7--||
||--7--|--9--|--5--||
||-----|-----|-----||

|--------------------------|
|--------------------------|
|--------------------------|
|-2------------------------|
|-2------------------------|
|-0------------------------|

repeat later

-------------------------
from : www.zonemetal.com
-------------------------
PK
     f3N.
  
     01- Fallen.txt-------------------------
from : www.zonemetal.com
-------------------------

band: Shape Of Despair
album: Angels Of Distress
song: Fallen


Tabbed by: Chris Humeniuk 

Tuning: 2 steps down (C)

Keys:
  x  - mute

INTRO:
(Gtr 1)
|------|
|------|
|-4----|
|-4----|
|-2----|
|------|

(Gtr 2)
|------|
|-12---|
|--x---|
|--9---|
|------|
|------|


RIFF A:
(Gtr 1)
|-----------------------------|
|-----------------------------|
|----------------------4------|
|-2------2------5------4------|
|-2------2------5------2------|
|-0------0------3-------------|

(Gtr 2)
|-----------------------------|
|-5------5------8-----12------|
|-x------x------x------x------|
|-2------2------5------9------|
|-----------------------------|
|-----------------------------| 6x


RIFF B:
(Gtr 1)
|--------------------------------------------------------------------|
|--------------------------------------------------------------------|
|---------------------------5---5----------------------------5-5--5--|
|-6-6------6-6------2---2---5---5---6-6------6-6-----2---2---5-5--5--|
|-6-6------6-6------2---2---3---3---6-6------6-6-----2---2---3-3--3--|
|-4-4------4-4------0---0-----------4-4------4-4-----0---0-----------|

(Gtr 2)
|--------------------------------------------------------------------|
|-9-9------9-9-----12--12---8---8---9-9------9-9----12--12---8-8--8--|
|-x-x------x-x------x---x---x---x---x-x------x-x-----x---x---x-x--x--|
|-6-6------6-6------9---9---5---5---6-6------6-6-----9---9---5-5--5--|
|--------------------------------------------------------------------|
|--------------------------------------------------------------------| 6x


RIFF C:
(Gtr 1)
|---------------------------------|
|---------------------------------|
|-------------------------4---4---|
|-2---2---2---2---5---5---4---4---|
|-2---2---2---2---5---5---2---2---|
|-0---0---0---0---3---3-----------|

(Gtr 2)
|---------------------------------|
|-5---5---5---5---8---8--12--12---|
|-x---x---x---x---x---x---x---x---|
|-2---2---2---2---5---5---9---9---|
|---------------------------------|
|---------------------------------| 4x


RIFF B - 4x


OUTRO:
(Gtr 1)
|---------------------------------|
|---------------------------------|
|---------------------------------|
|-6-------------------------------|
|-6-------------------------------|
|-4-------------------------------|

(Gtr 2)
|---------------------------------|
|-9-------------------------------|
|-x-------------------------------|
|-6-------------------------------|
|---------------------------------|
|---------------------------------|

-------------------------
from : www.zonemetal.com
-------------------------
PK
     f3~       02- Angels Of Distress.txt-------------------------
from : www.zonemetal.com
-------------------------

band: Shape Of Despair
album: Angels Of Distress
song: Angels of Distress

Tabbed by: Chris Humeniuk 


Tuning: 2 steps down (C)

RIFF A:

|---------------------------------------------------------------------|
|---------------------------------------------------------------------|
|--------------------------------------------------8---8--8-8--8--8---|
|-6------6---9---2------5---5---6---6--6-6--6--6---8---8--8-8--8--8---|
|-6------6---9---2------5---5---6---6--6-6--6--6---6---6--6-6--6--6---|
|-4------4---7---0------3---3---4---4--4-4--4--4---6---6--6-6--6--6---| 2x


RIFF B:
(Gtr 1)
 16x 16x 16x 14x
|---|---|---|---|----|
|---|---|---|---|----|
|---|---|---|-8-|----|
|-6-|-9-|-6-|-8-|-6--|
|-6-|-7-|-6-|-6-|-6--|
|-4-|-0-|-4-|---|-4--|

(Gtr 2)
 16x  12x 4x  16x  6x        8x
|----|---|---|----|---|-----|---|
|----|---|---|----|---|-----|---|
|-11-|-9-|-8-|-11-|-8-|-6-6-|-8-|
|-11-|-9-|-8-|-11-|-8-|-6-6-|-8-|
|--9-|-7-|-6-|--9-|-6-|-4-4-|-6-|
|----|---|---|----|---|-----|-6-| 4x


RIFF A - 2x


RIFF C:

|------------------------------------------------------------------------|
|------------------------------------------------------------------------|
|-----13---9------9---6---12---12---13-------9------9---6---12---12--12--|
|-6---13---9------9---6---12---12---13---6---9------9---6---12---12--12--|
|-6---11---7------7---4---10---10---11---6---7------7---4---10---10--10--|
|-4--------------------------------------4---7---------------------------|

|-----------------------------------------------------------------|
|-----------------------------------------------------------------|
|------------11--------------7--------------11--------------7--7--|
|-8----------11---9----------7---8----------11---9----------7--7--|
|-8-----------9---9----------5---8-----------9---9----------5--5--|
|-6---------------7--------------6---------------7----------------|


RIFF Da:
(Gtr 1)
|-------------------------------------------------|     |---------------------|
|-------------------------------------------------|     |---------------------|
|-------------------------------------------------|     |---------------------|
|-8--8--8--8--5--5--4--4--4--4--4--4--5--5--8--8--|     |-6-------------------|
|-8--8--8--8--5--5--4--4--2--2--2--2--5--5--8--8--|     |-6-------------------|
|-6--6--6--6--3--3--2--2--2--2--2--2--3--3--6--6--| 4x  |-4-------------------|
  ___________________________________

(Gtr 2)
|-------------------------------------------------|     |---------------------|
|-------------------------------------------------|     |---------------------|
|-------------------------------------------------|     |---------------------|
|-8--8--8--8--5--5--4--4--4--4--4--4--5--5--8--8--|     |-6-------------------|
|-8--8--8--8--5--5--4--4--2--2--2--2--5--5--8--8--|     |-6-------------------|
|-6--6--6--6--3--3--2--2--------------3--3--6--6--| 4x  |-4-------------------|


RIFF Db:
(Gtr 1)
|-------------------------------------------------|
|-------------------------------------------------|
|-------------------------------------------------|
|-8--8--8--8--5--5--4--4--4--4--4--4--5--5--8--8--|
|-8--8--8--8--5--5--4--4--2--2--2--2--5--5--8--8--|
|-6--6--6--6--3--3--2--2--2--2--2--2--3--3--6--6--|
  _______________________________________________

(Gtr 2)
|-----------------------------------------------------------|
|-----------------------------------------------------------|
|-10--10--10--10--12--12--11--11--------------7--7--10--10--|
|--8---8---8---8--12--12--11--11--9--9--9--9--5--5---8---8--|
|--8---8---8---8--10--10---9---9--9--9--9--9--5--5---8---8--|
|---------------------------------7--7--7--7----------------| 4x


RIFF B - 4x


RIFF A - 2x


OUTRO:

|----------------------------------|
|----------------------------------|
|----------------------------------|
|-6--------------------------------|
|-6--------------------------------|
|-4--------------------------------|

-------------------------
from : www.zonemetal.com
-------------------------
PK
     mf3Sg  g  !   03- Quiet These Paintings Are.txt-------------------------
from : www.zonemetal.com
-------------------------

band: Shape Of Despair
album: Angels Of Distress
song: Quiet These Paintings Are


Tabbed by: Chris Humeniuk 

Tuning: 2 steps down (C)

Key:
  x  - mute
 ___ - palm mute
  h  - hammer on
  p  - pull off
 / \ - slide


RIFF A:
    12x    6x    6x
||-----|-----|-----||
||-----|-----|-----||
||--4--|--4--|-----||
||--x--|--4--|--4--||
||--2--|--2--|--4--||
||--0--|--2--|--2--|| 4x


RIFF B:

|-------------------------------------------------------------------------|
|-------------------------------------------------------------------------|
|-------------------------------------------------------------------------|
|-2--2--2--2--2--2--2--2--2--2--------4--4--4--4--4--4--4--4--4--4--------|
|-2--2--2--2--2--2--2--2--2--2--------2--2--2--2--2--2--4--4--4--4--------|
|-0--0--0--0--0--0--0--0--0--0--------------------------2--2--2--2--------| 4x
     _______________________             _______________________


RIFF A - 4x


RIFF B - 4x


RIFF C:
    24x    6x   12x    6x   24x    6x   12x    3x    3x
||-----|-----|-----|-----|-----|-----|-----|-----|-----||
||-----|-----|-----|-----|-----|-----|-----|-----|-----||
||-----|--6--|--8--|--6--|-----|--6--|--8--|-----|-----||
||--9--|--6--|--6--|--6--|--2--|--6--|--6--|--6--|--6--||
||--7--|--4--|--6--|--4--|--2--|--4--|--6--|--4--|--3--||
||--0--|-----|-----|-----|--0--|-----|-----|-----|-----||


RIFF D: (strummed faster)
    12x   12x   12x   12x   12x   12x   12x   12x
||-----|-----|-----|-----|-----|-----|-----|-----|------------------------||
||-----|-----|-----|-----|-----|-----|-----|-----|------------------------||
||-----|--5--|-----|--5--|--6--|-----|--8--|-----|------------------------||
||--2--|--5--|--2--|--5--|--6--|--2--|--6--|--2--|--2---------------------||
||--2--|--3--|--2--|--3--|--4--|--2--|--6--|--2--|--2---------------------||
||--0--|-----|--0--|-----|-----|--0--|-----|--0--|--0---------------------||


RIFF C


RIFF D


OUTRO:
(Gtr 1)
    12x    6x    6x
||-----|-----|-----||     ||------------------------------||
||-----|-----|-----||     ||------------------------------||
||--4--|--4--|-----||     ||------------------------------||
||--x--|--4--|--4--||     ||--2---------------------------||
||--2--|--2--|--4--||     ||--2---------------------------||
||--0--|--2--|--2--|| 6x  ||--0---------------------------||

(Gtr 2 - aprox. 13:20)
|----------------------------------------------------------------------|
|----------------------------------------------------------------------|
|-------------------------9-11--12------------12h14--12h14p12p11-12----|
|-11--11--11--11--11--11-----------------------------------------------|
|--x---x---x---x---x---x-----------------------------------------------|
|--9---9---9---9---9---9-----------------------------------------------|

 ------------------------------------------------------------------------|
 -------12/15-15--12/15-15-----15--15--15--15--17p15p14--14--14----------|
 -12h14----------------------------------------------------------15--15--|
 -----------------------------------------------------------------x---x--|
 ----------------------------------------------------------------13--13--|
 ------------------------------------------------------------------------|

 ------------------------------------------------------------------------|
 -----------------------------------------------12/15-15--12/15-15----15-|
 -12-----12--12--12h14--12h14p12p11-12----12h14--------------------------|
 ------------------------------------------------------------------------|
 ------------------------------------------------------------------------|
 ------------------------------------------------------------------------|

 ----------------------------------------------------------------------|
 -15--15--15--17p15p14--14--14------------------12-12/15-12------------|
 -------------------------------15--15--12-------x--x-----x--12--12----|
 --------------------------------x---x-----------9--9/12--9------------|
 -------------------------------13--13---------------------------------|
 ----------------------------------------------------------------------|

 ----------------------------------------------------------------------|
 -12-12/15-12------------12-12/15-10------------12-12/15-10------------|
 --x--x-----x--12--11-----x--x-----x--11--11-----x--x-----x--11--12----|
 --9--9/12--9-------------9--9/12--7-------------9--9/12--7------------|
 ----------------------------------------------------------------------|
 ----------------------------------------------------------------------|

 ----------------------------------------------------------------------|
 -12-12/15-12------------12-12/15-12------------12-12/15-10------------|
 --x--x-----x--12--12-----x--x-----x--12--11-----x--x-----x--11--11----|
 --9--9/12--9-------------9--9/12--9-------------9--9/12--7------------|
 ----------------------------------------------------------------------|
 ----------------------------------------------------------------------|

 ----------------------------------------------------------------------|
 -12-12/15-10--10--12--------------------------------------------------|
 --x--x-----x---x---x--------------------------------------------------|
 --9--9/12--7---7---9--------------------------------------------------|
 ----------------------------------------------------------------------|
 ----------------------------------------------------------------------|

 -------------------------
 from : www.zonemetal.com
 -------------------------
PK
     f3w       04- ...To Live For My Death.txt-------------------------
from : www.zonemetal.com
-------------------------

band: Shape Of Despair
album: Angels Of Distress
song: ...To Live For My Death...

Tabbed by: Chris Humeniuk 

Tuning: 2 steps down (C)

Note - Its always hard to tab Shape of Despair since there are so many
	instruments going on at the same time...i assume most of the
	instruments are not guitar, so that is why the tabs seem so tiny,
	and possibly incorrect...but its close anyways.
	Shape of Despair also recorded the guitars very distorted, making
	it that much harder to figure out. I'll let you figure out the
	order and repeats this time.

Key:
  x  - mute
 / \ - slide


RIFF Aa:
(Gtr 1)
|--------------------------------|
|--------------------------------|
|-----------------4--------------|
|--5----5-5----5--4------5----5--|
|--5----5-5----5--2------5----5--|
|--3----3-3----3---------3----3--|

(Gtr 2)
|--------------------------------|
|--------------------------------|
|-------11--10-------------------|
|-12-----x---x---12-----12-------|
|-10-----9---8---10-----10-------|
|----------------10--------------|

(Gtr 1)
|-----------------------------------------------------------------|
|-----------------------------------------------------------------|
|-5----5--5----5-----------------------------------4--------------|
|-5----5--5----5----6-6----6-6------5----5-5----5--4------5----5--|
|-3----3--3----3----6-6----6-6------5----5-5----5--2------5----5--|
|-------------------4-4----4-4------3----3-3----3---------3----3--|

(Gtr 2)
|-----------------------------------------------------------------|
|-----------------------------------------------------------------|
|-----------------------------------------11--10------------------|
|-10----------13---13-13--13-13----12------x---x--12-----12-------|
|-10----------13---11-11--11-11----10------9---8--10-----10-------|
|--8----------11----------------------------------10--------------|


RIFF Ab:
(Gtr 1)
|-----------------------------------------------------------------|
|-----------------------------------------------------------------|
|-5----5--5----5-----------------------------------4--------------|
|-5----5--5----5----6-6----6-6------5----5-5----5--4------5----5--|
|-3----3--3----3----6-6----6-6------5----5-5----5--2------5----5--|
|-------------------4-4----4-4------3----3-3----3---------3----3--|

(Gtr 2)
|-----------------------------------------------------------------|
|-----------------------------------------------------------------|
|----------------------------------------11--10-------------------|
|-10----------13---13-13--13-13----12-----x---x---12-----12-------|
|-10----------13---11-11--11-11----10-----9---8---10-----10-------|
|--8----------11----------------------------------10--------------|


RIFF B:
(Gtr 1)
|------------------------------------------------------------------|
|------------------------------------------------------------------|
|------------------------------------------------------------------|
|--5---5---5---5---4---4---2---2---5---5---5---5---4---4---2---2---|
|--5---5---5---5---2---2---0---0---5---5---5---5---2---2---0---0---|
|--3---3---3---3-------------------3---3---3---3-------------------|

(Gtr 2)
|------------------------------------------------------------------|
|-------------------------10--10--------------------------10--10---|
|-12--12--12--12--11--11---x---x--12--12--12--12--11--11---x---x---|
|--x---x---x---x---x---x---7---7---x---x---x---x---x---x---7---7---|
|-10--10--10--10---9---9----------10--10--10--10---9---9-----------|
|------------------------------------------------------------------|

(Gtr 1)
 -----------------------------------------------------------------|
 -----------------------------------------------------------------|
 -----------------------------------------------------------------|
 -2---2---2---2---6---6---4---4---2---2---2---2---6---6---4---4---|
 -2---2---2---2---6---6---4---4---2---2---2---2---6---6---4---4---|
 -0---0---0---0---4---4---2---2---0---0---0---0---4---4---2---2---|

(Gtr 2)
 -----------------------------------------------------------------|
 -----------------------------------------------------------------|
 -9---9---9---9---8---8--11--11---9---9---9---9---8---8--11--11---|
 -x---x---x---x---x---x---x---x---x---x---x---x---x---x---x---x---|
 -7---7---7---7---6---6---9---9---7---7---7---7---6---6---9---9---|
 -----------------------------------------------------------------|

Note - I don't think Gtr 3 is actually a guitar...but if i were jam'n
	w/another guitarist, i'd play Gtr 3 over Gtr 2...

(Gtr 3)
|---------------------------------------------|
|----------------18---18----------18-17-17----|
|-15---15---15-----------17-17-18----------18-|
|---------------------------------------------|
|---------------------------------------------|
|---------------------------------------------|

 ---------------------------------------------|
 ----------------18---18----------18-17-17----|
 -15---15---15-----------17-17-18----------18-|
 ---------------------------------------------|
 ---------------------------------------------|
 ---------------------------------------------|

 ---------------------------------------------------------------------------|
 ----------------17---16------------------------------17---16---------------|
 -15---15---15----------------14-------15---15---15----------------14---\12-|
 ---------------------------------------------------------------------------|
 ---------------------------------------------------------------------------|
 ---------------------------------------------------------------------------|

 -------------------------
 from : www.zonemetal.com
 -------------------------
PK
     Gf3 Y  Y                05- Night's Dew.txtPK
     f3N.
  
              01- Fallen.txtPK
     f3~                02- Angels Of Distress.txtPK
     mf3Sg  g  !          m   03- Quiet These Paintings Are.txtPK
     f3w              7  04- ...To Live For My Death.txtPK      a  JN
Related for Angels Of Distress tab