Song name
# A B C D E F G H I J K L M N O P Q R S T U V W X Y Z

Shape Of Despair - Sleep Mirrored tab

Sleep Mirrored ~ Shape of Despair
Tabbed by Double No
Arnaud_Braska@hotmail.fr


First wave

|---------------------------|
|---------------------------|
|---------------------------|
|-------------------------4-|
|-2---2-2-2-2-2-4-4-5---5-2-|
|-0---0-0-0-0-0-2-2-3---3---|

Second and Third wave

|---------------------------|
|---------------------------|
|---------------------------|
|---------------------4-4---|
|-2---2-2-4-4-5-5-5-5-2-2---|
|-0---0-0-2-2-3-3-3-3-------|
      |-------PM------------|
Tap to rate this tab
 
# A B C D E F G H I J K L M N O P Q R S T U V W X Y Z