Song name
# A B C D E F G H I J K L M N O P Q R S T U V W X Y Z

Sharks Keep Moving - Jets Jets tab

JET'S JETS
As recorded by Sharks Keep Moving
(From the 1999 Album SHARKS KEEP MOVING)

Transcribed by Spencer B.
	
Gtr I (E A D G B E) - 'Nathan - Clean'
Gtr II (E A D G B E) - 'Jake - Dirty'
Gtr III (E A D G B E) - 'Jake - Clean'

  Q=128
 3/4
  Gtr I
   Q   E  Q   E    Q   E  Q    +E     Q    E  Q   E    Q    E  E  Q
|---------------|------------------|----------------|----------------|
|-12------------|------------------|----------------|----------------|
|--------13-----|-11---------------|----------------|----------------|
|-----11-----11-|-----11-14---(14)-|------11-14--11-|-11---11-14p11--|
|---------------|------------------|-14-------------|-14-------------|
|---------------|------------------|----------------|----------------|
|
|                           Gtr II
|                           <
|  W               H        Q        +H.              +H.
|---------------|------------------|----------------|----------------|
|---------------|------------------|----------------|----------------|
|---------------|------------------|----------------|----------------|
|---------------|-----------2------|-(2)------------|-(2)------------|
|---------------|-----------0------|-(0)------------|-(0)------------|
|---------------|------------------|----------------|----------------|


     Q    E  Q   E    Q    E  Q   +E     Q    E  Q   E    Q    E  E  Q   3x
||-----------------|------------------|----------------|-----------------||
||o-12-------------|------------------|----------------|----------------o||
||----------13-----|-11---------------|----------------|-----------------||
||-------11-----11-|------11-14--(14)-|------11-14--11-|-11---11-14p11---||
||o----------------|------------------|-14-------------|-14-------------o||
||-----------------|------------------|----------------|-----------------||
|
|   +H.              +H.                +H.              +H.             3x
||-----------------|------------------|----------------|-----------------||
||o----------------|------------------|----------------|----------------o||
||-----------------|------------------|----------------|-----------------||
||--(2)------------|-(2)--------------|-(2)------------|-(2)-------------||
||o-(0)------------|-(0)--------------|-(0)------------|-(0)------------o||
||-----------------|------------------|----------------|-----------------||


     Q    E  Q    E    Q    E  Q    +E      Q    E  Q   E     Q    E  E  Q
||------------------|-------------------|-----------------|------------------|
||o-12--------------|-------------------|-----------------|------------------|
||----------13------|-11----------------|-----------------|------------------|
||-------11------11-|------11-14---(14)-|-------11-14--11-|--11---11-14p11---|
||o-----------------|-------------------|--14-------------|--14--------------|
||------------------|-------------------|-----------------|------------------|
|
|   Gtr III
|    Q.      Q.        Q.      Q.          +H.               +H.
||------------------|-------------------|-----------------|------------------|
||o-----------------|---------12--------|-(12)------------|-(12)-------------|
||------------------|-13----------------|-----------------|------------------|
||----------14------|-------------------|-----------------|------------------|
||o-12--------------|-------------------|-----------------|------------------|
||------------------|-------------------|-----------------|------------------|


    Q    E  Q   E      Q    E  Q   +E
|-----------------|--------------------|
|--12-------------|--------------------|
|----------13-----|---11---------------|
|-------11-----11-|--------11-14--(14)-|
|-----------------|--------------------|
|-----------------|--------------------|
|
|   H.                +H.
|-----------------|--------------------|
|-^12-------------|-^(12)--------------|
|-^13-------------|-^(13)--------------|
|-^14-------------|-^(14)--------------|
|-^12-------------|-^(12)--------------|
|-----------------|--------------------|


     Q    E  Q   E      Q    E  E  Q    4x
|------------------|--------------------||
|------------------|-------------------o||
|------------------|--------------------||
|--------11-14--11-|---11---11-14p11----||
|---14-------------|---14--------------o||
|------------------|--------------------||
|
|   +H.                +H.              4x
|------------------|--------------------||
|-^(12)------------|-^(12)-------------o||
|-^(13)------------|-^(13)--------------||
|-^(14)------------|-^(14)--------------||
|-^(12)------------|-^(12)-------------o||
|------------------|--------------------||


     Q    Q   Q     Q   Q      Q     Q   Q      Q     Q   Q      Q
||---------------|----------------|----------------|----------------|
||o-12-----------|----------------|-12-------------|----------------|
||---------------|-13-------------|----------------|-13-------------|
||-------11--14--|-----14-----11--|-----11-----14--|-----14-----11--|
||o--------------|----------------|----------------|----------------|
||---------------|----------------|----------------|----------------|
|
|    H.             Q   E  Q.        Q   E  Q.        Q   E  Q.
||---------------|----------------|----------------|----------------|
||o--------------|-12-------------|-12-------------|-12-------------|
||---------------|-----13---------|-----13---------|-----13---------|
||---------------|--------14------|--------14------|--------14------|
||o--0-----------|----------------|----------------|----------------|
||---------------|----------------|----------------|----------------|


   Q   Q   Q     Q     Q   Q          Q    Q   Q      E   E  E  E  Q
|-------------|-------------------|---------------|---------------------||
|-12----------|-------------------|--12-----------|--------------------o||
|-------------|-13----------------|---------------|--13h=14p13----------||
|-----11--14--|-------14--11------|-------11--14--|------------14p11----||
|-------------|-------------------|---------------|--------------------o||
|-------------|-------------------|---------------|---------------------||
|
|  Q   Q   Q     E  H         +E     +H.             +H.
|-------------|-------------------|---------------|---------------------||
|-------------|-------------------|---------------|--------------------o||
|-------------|-13h14--------(14)-|-(14)----------|-(14)----------------||
|--0h==4p==0--|-------------------|---------------|---------------------||
|-------------|-------------------|---------------|--------------------o||
|-------------|-------------------|---------------|---------------------||


    E  E E  Q.      E  E  E  Q.      E  E  E  Q.      E  E  E  Q.
||---------------|----------------|----------------|-----------------|
||o--------------|----------------|----------------|-----------------|
||---------------|----------------|----------------|-----------------|
||--9h11p9-------|--9h11p=9-------|--9h11p=9-------|--9h11p=9--------|
||o--------12----|----------12----|----------12----|----------12-----|
||---------------|----------------|----------------|-----------------|
|
|   H.              Q     E  Q.      Q     E  Q.      Q     E  Q.
||---------------|----------------|----------------|-----------------|
||o--------------|-12-------------|-12-------------|-12--------------|
||---------------|-------13-------|-------13-------|-------13--------|
||---------------|----------14----|----------14----|----------14-----|
||o-0------------|----------------|----------------|-----------------|
||---------------|----------------|----------------|-----------------|


  E  E E  Q.       E  E E  Q.           E   E E  Q.       E   E E  Q.
|---------------|-------------------|-----------------|-------------------||
|---------------|-------------------|-----------------|------------------o||
|---------------|-------------------|-----------------|-------------------||
|-9h11p9--------|--9h11p9-----------|---9h=11p9-------|---9h=11p9---------||
|--------11-----|---------11--------|-----------11----|-----------11-----o||
|---------------|-------------------|-----------------|-------------------||
|
| Q    Q     Q     E  H         +E     +H.               +H.
|---------------|-------------------|-----------------|-------------------||
|---------------|-------------------|-----------------|------------------o||
|---------------|-13h14--------(14)-|-(14)------------|-(14)--------------||
|-0h===4p====0--|-------------------|-----------------|-------------------||
|---------------|-------------------|-----------------|------------------o||
|---------------|-------------------|-----------------|-------------------||


   E  E  E  E  E  E    E  E  E  E  E  E
|-------------------|-------------------|
|-------------------|-------------------|
|-13-13-13-13-13-13-|-13-13-13-13-13-13-|
|-11-11-11-11-11-11-|-11-11-11-11-11-11-|
|-11-11-11-11-11-11-|-11-11-11-11-11-11-|
|-------------------|-------------------|
|
|  E  E  E  E  E  E    E  E  E  E  E  E
|-------------------|-------------------|
|-------------------|-------------------|
|-13-13-13-13-13-13-|-13-13-13-13-13-13-|
|-11-11-11-11-11-11-|-11-11-11-11-11-11-|
|-11-11-11-11-11-11-|-11-11-11-11-11-11-|
|-------------------|-------------------|


  H.        Q   Q      Q     Q   Q      Q
|--------|----------------|------------------|
|--------|-12-------------|------------------|
|--------|----------------|-13---------------|
|--------|-----11-----14--|-----14-----11----|
|-0------|----------------|------------------|
|--------|----------------|------------------|
|
| H.        Q   E  Q.        Q   E  Q.
|--------|----------------|------------------|
|--------|-12-------------|-12---------------|
|--------|-----13---------|-----13-----------|
|--------|--------14------|--------14--------|
|-0------|----------------|------------------|
|--------|----------------|------------------|


   Q   Q      Q     Q   Q   Q     Q     Q   Q
|----------------|-------------|-------------------|
|-12-------------|-------------|-12----------------|
|----------------|-13----------|-------------------|
|-----11-----14--|-----14--11--|-------14--11------|
|----------------|-------------|-------------------|
|----------------|-------------|-------------------|
|
|  Q   E  Q.        Q   Q   Q     E  H         +E
|----------------|-------------|-------------------|
|-12-------------|-------------|-------------------|
|-----13---------|-------------|-13h14--------(14)-|
|--------14------|--0h==4p==0--|-------------------|
|----------------|-------------|-------------------|
|----------------|-------------|-------------------|


    Q    Q   Q      E   E  E  E  Q
|---------------|--------------------|
|---------------|--------------------|
|--13-----------|--13h=14p13---------|
|-------11--14--|------------14p11---|
|---------------|--------------------|
|---------------|--------------------|
|
|  +H.             +H.
|---------------|--------------------|
|---------------|--------------------|
|-(14)----------|-(14)---------------|
|---------------|--------------------|
|---------------|--------------------|
|---------------|--------------------|


  H.         Q   E  Q.      Q   E  Q.      Q   E  Q.
|---------|--------------|--------------|---------------|
|---------|-12-----------|-12-----------|-12------------|
|---------|-----13-------|-----13-------|-----13--------|
|---------|--------14----|--------14----|--------14-----|
|-0-------|--------------|--------------|---------------|
|---------|--------------|--------------|---------------|


  Q  Q  Q     E  H     +E     +H.         +H.
|----------|---------------|-----------|---------|
|----------|---------------|-----------|---------|
|----------|-13h14----(14)-|-(14)------|-(14)----|
|-0h=4p=0--|---------------|-----------|---------|
|----------|---------------|-----------|---------|
|----------|---------------|-----------|---------|


  Q   Q   Q    Q   Q   Q    Q   Q   Q    Q   Q   Q
|------------|------------|------------|--------------|
|----10--10--|----10--10--|----10--10--|----10--10----|
|----11--11--|----11--11--|----11--11--|----11--11----|
|------------|------------|------------|--------------|
|------------|------------|------------|--------------|
|------------|------------|------------|--------------|
|
| Q   Q   Q    Q   Q   Q    Q   Q   Q    Q   Q   Q
|------------|------------|------------|--------------|
|----12--12--|----12--12--|----12--12--|----12--12----|
|----13--13--|----13--13--|----13--13--|----13--13----|
|------------|------------|------------|--------------|
|------------|------------|------------|--------------|
|------------|------------|------------|--------------|


  Q   Q   Q    Q   Q   Q    Q   Q   Q    Q   Q   Q
|------------|------------|------------|--------------|
|-----9---9--|-----9---9--|-----9---9--|-----9---9----|
|----11--11--|----11--11--|----11--11--|----11--11----|
|------------|------------|------------|--------------|
|------------|------------|------------|--------------|
|------------|------------|------------|--------------|
|
| Q   Q   Q    Q   Q   Q    Q   Q   Q    Q   Q   Q
|------------|------------|------------|--------------|
|----12--12--|----12--12--|----12--12--|----12--12----|
|----13--13--|----13--13--|----13--13--|----13--13----|
|------------|------------|------------|--------------|
|------------|------------|------------|--------------|
|------------|------------|------------|--------------|


    H.         +H.         +H.         +H.
|-^12-------|-(12)------|-(12)------|-(12)----|
|-^10-------|-(10)------|-(10)------|-(10)----|
|-^-9-------|--(9)------|--(9)------|--(9)----|
|-----------|-----------|-----------|---------|
|-----------|-----------|-----------|---------|
|-----------|-----------|-----------|---------|
|
|   H.         +H.         +H.         +H.
|-----------|-----------|-----------|---------|
|-----------|-----------|-----------|---------|
|-----------|-----------|-----------|---------|
|-----------|-----------|-----------|---------|
|---0-------|--(0)------|--(0)------|--(0)----|
|-----------|-----------|-----------|---------|


     Q    E  Q    E    Q    E  Q    +E      Q    E  Q   E     Q    E  E  Q
||------------------|-------------------|-----------------|-----------------|
||o-12--------------|-------------------|-----------------|-----------------|
||----------13------|-11----------------|-----------------|-----------------|
||-------11------11-|------11-14---(14)-|-------11-14--11-|--11---11-14p11--|
||o-----------------|-------------------|--14-------------|--14-------------|
||------------------|-------------------|-----------------|-----------------|
|
|    Q.      Q.        Q.      Q.          +H.               +H.
||------------------|-------------------|-----------------|-----------------|
||o-----------------|---------12--------|-(12)------------|-(12)------------|
||------------------|-13----------------|-----------------|-----------------|
||----------14------|-------------------|-----------------|-----------------|
||o-12--------------|-------------------|-----------------|-----------------|
||------------------|-------------------|-----------------|-----------------|


    Q    E  Q   E      Q    E  Q   +E
|-----------------|--------------------|
|--12-------------|--------------------|
|----------13-----|---11---------------|
|-------11-----11-|--------11-14--(14)-|
|-----------------|--------------------|
|-----------------|--------------------|
|
|   H.                +H.
|-----------------|--------------------|
|-^12-------------|-^(12)--------------|
|-^13-------------|-^(13)--------------|
|-^14-------------|-^(14)--------------|
|-^12-------------|-^(12)--------------|
|-----------------|--------------------|


     Q    E  Q   E      Q    E  E  Q    3x
|------------------|--------------------||
|------------------|-------------------o||
|------------------|--------------------||
|--------11-14--11-|---11---11-14p11----||
|---14-------------|---14--------------o||
|------------------|--------------------||
|
|   +H.                +H.              3x
|------------------|--------------------||
|-^(12)------------|-^(12)-------------o||
|-^(13)------------|-^(13)--------------||
|-^(14)------------|-^(14)--------------||
|-^(12)------------|-^(12)-------------o||
|------------------|--------------------||


     Q    E  Q   E    Q    E  Q   +E      Q    E  Q   E    Q   E  E  Q
||-----------------|------------------|-----------------|---------------|
||o-12-------------|------------------|-----------------|---------------|
||----------13-----|-11---------------|-----------------|---------------|
||-------11-----11-|------11-14--(14)-|-------11-14--11-|-11--11-14p11--|
||o----------------|------------------|--14-------------|-14------------|
||-----------------|------------------|-----------------|---------------|
|
|   Gtr II
|    H.               H.                 +H.               H         Q
||-----------------|------------------|-----------------|---------------|
||o----------------|-12---------------|-(12)------------|-----------12--|
||-----------------|-13---------------|-(13)------------|-----------13--|
||-----------------|-14---------------|-(14)------------|-----------14--|
||o----------------|-12---------------|-(12)------------|-----------12--|
||-----------------|------------------|-----------------|---------------|


   Q    E  Q    E     Q    E  Q   +E     Q   E  Q     E    Q   E  E  Q     6x
|-----------------|-------------------|-----------------|------------------||
|-12--------------|-------------------|-----------------|-----------------o||
|---------13------|--11---------------|-----------------|------------------||
|------11------11-|-------11-14--(14)-|-----11-14----11-|-11--11-14p11-----||
|-----------------|-------------------|-14--------------|-14--------------o||
|-----------------|-------------------|-----------------|------------------||
|
|  Q.      Q.        +H.                 Q   Q     Q       Q   Q     Q     6x
|-----------------|-------------------|-----------------|------------------||
|---------12------|-(12)--------------|-----12----------|-----12----------o||
|---------13------|-(13)--------------|-----------------|------------------||
|---------14------|-(14)--------------|-----------14----|-11--------11-----||
|---------12------|-(12)--------------|-----------------|-----------------o||
|-----------------|-------------------|-----------------|------------------||

http://www.myspace.com/sharkskeepmovingfan
Tap to rate this tab
# A B C D E F G H I J K L M N O P Q R S T U V W X Y Z