Song name
# A B C D E F G H I J K L M N O P Q R S T U V W X Y Z

Sharks Keep Moving - Join Up tab

JOIN UP
As recorded by Sharks Keep Moving
(From the 1999 Album SHARKS KEEP MOVING)
	
Transcribed by Spencer B.

Gtr I (E A D G B E) - 'Jake - Clean'
Gtr II (E A D G B E) - 'Nathan - Clean'

   Verse
    Q=100
    Gtr I
    W          W              W          +H.       Q    8x
||--0--------|-1------------|-0--------|-(0)------/1----||
||o-1--------|-1------------|-1--------|-(1)------/1---o||
||--0--------|-2------------|-0--------|-(0)------/2----||
||--2--------|-3------------|-2--------|-(2)------/3----||
||o-3--------|-3------------|-3--------|-(3)------/3---o||
||-----------|--------------|----------|----------------||
|
|   Gtr II
|   W          Q  Q  Q  E E   W          +H.       Q    8x
||-----------|--------------|----------|----------------||
||o-5--------|-3--1-----1h3-|-5--------|-(5)------/8---o||
||-----------|-------2------|----------|----------------||
||-----------|--------------|----------|----------------||
||o----------|--------------|----------|---------------o||
||-----------|--------------|----------|----------------||


   Chorus
     H       H            Q  Q  Q  Q
||---0-------0--------|---3--3--3--3--|
||o--1-------1--------|---3--3--3--3--|
||---0-------0--------|---4--4--4--4--|
||---2-------2--------|---5--5--5--5--|
||o--3-------3--------|---5--5--5--5--|
||--------------------|---------------|
|
|    Q   Q   Q   E  E     W
||--------------------|---------------|
||o-----13--15--13h15-|-/17-----------|
||--12----------------|---------------|
||--------------------|---------------|
||o-------------------|---------------|
||--------------------|---------------|


   H        H          H        H
|--0--------1-------|--0--------1---------||
|--1--------1-------|--1--------1--------o||
|--0--------2-------|--0--------2---------||
|--2--------3-------|--2--------3---------||
|--3--------3-------|--3--------3--------o||
|-------------------|---------------------||
|
|  E  Q.    E  Q.      E  Q.    E  Q.
|----15-------15----|----15-------15------||
|-12-------13-------|-12-------13--------o||
|-------------------|---------------------||
|-------------------|---------------------||
|-------------------|--------------------o||
|-------------------|---------------------||


   W           +W
|--0--------|--(0)----|
|--1--------|--(1)----|
|--0--------|--(0)----|
|--2--------|--(2)----|
|--3--------|--(3)----|
|-----------|---------|
|
|  W           +W
|-----------|---------|
|-12--------|-(12)----|
|-----------|---------|
|-----------|---------|
|-----------|---------|
|-----------|---------|


   Verse
    W          W              W          +H.       Q     4x
||--0--------|-1------------|-0--------|-(0)------/1-----||
||o-1--------|-1------------|-1--------|-(1)------/1----o||
||--0--------|-2------------|-0--------|-(0)------/2-----||
||--2--------|-3------------|-2--------|-(2)------/3-----||
||o-3--------|-3------------|-3--------|-(3)------/3----o||
||-----------|--------------|----------|-----------------||
|
|   W          Q  Q  Q  E E   W          +H.       Q     4x
||-----------|--------------|----------|-----------------||
||o-5--------|-3--1-----1h3-|-5--------|-(5)------/8----o||
||-----------|-------2------|----------|-----------------||
||-----------|--------------|----------|-----------------||
||o----------|--------------|----------|----------------o||
||-----------|--------------|----------|-----------------||


   Bridge
     W           W           W           +W      4x
||---0--------|--1--------|--0--------|--(0)-----||
||o--0--------|--1--------|--1--------|--(1)----o||
||---1--------|--2--------|--0--------|--(0)-----||
||---2--------|--3--------|--2--------|--(2)-----||
||o--2--------|--3--------|--3--------|--(3)----o||
||---0--------|-----------|-----------|----------||
|
|    W           W           W           +W      4x
||--^0--------|-^1--------|-^0--------|-^(0)-----||
||o-^0--------|-^1--------|-^1--------|-^(1)----o||
||--^1--------|-^2--------|-^0--------|-^(0)-----||
||--^2--------|-^3--------|-^2--------|-^(2)-----||
||o-----------|-----------|-----------|---------o||
||------------|-----------|-----------|----------||


   Interlude
    ~~~~~~~~~~~~~~~~~~~~~~~~~~~~~~~~~~~~~~~~~~~~~~~
    H    H      H    H      H    H      H   Q    Q
||--0----0----|-1----1----|-0----0----|-0---0---/1----||
||o-1----1----|-1----1----|-1----1----|-1---1---/1---o||
||--0----0----|-2----2----|-0----0----|-0---0---/2----||
||--2----2----|-3----3----|-2----2----|-2---2---/3----||
||o-3----3----|-3----3----|-3----3----|-3---3---/3---o||
||------------|-----------|-----------|---------------||
|
|   W           W           W           W
||------------|-----------|-----------|---------------||
||o-----------|-----------|-----------|--------------o||
||------------|-----------|-----------|---------------||
||------------|-----------|-----------|---------------||
||o-----------|-----------|-----------|--------------o||
||------------|-----------|-----------|---------------||


   Chorus
     H       H            Q  Q  Q  Q
||---0-------0--------|---3--3--3--3--|
||o--1-------1--------|---3--3--3--3--|
||---0-------0--------|---4--4--4--4--|
||---2-------2--------|---5--5--5--5--|
||o--3-------3--------|---5--5--5--5--|
||--------------------|---------------|
|
|    Q   Q   Q   E  E     W
||--------------------|---------------|
||o-----13--15--13h15-|-/17-----------|
||--12----------------|---------------|
||--------------------|---------------|
||o-------------------|---------------|
||--------------------|---------------|


   H        H          H        H         4x
|--0--------1-------|--0--------1---------||
|--1--------1-------|--1--------1--------o||
|--0--------2-------|--0--------2---------||
|--2--------3-------|--2--------3---------||
|--3--------3-------|--3--------3--------o||
|-------------------|---------------------||
|
|  E  Q.    E  Q.      E  Q.    E  Q.     4x
|----15-------15----|----15-------15------||
|-12-------13-------|-12-------13--------o||
|-------------------|---------------------||
|-------------------|---------------------||
|-------------------|--------------------o||
|-------------------|---------------------||


   W           +W
|--0--------|--(0)----|
|--1--------|--(1)----|
|--0--------|--(0)----|
|--2--------|--(2)----|
|--3--------|--(3)----|
|-----------|---------|
|
|  W            W
|-----------|--15-----|
|-12--------|-(12)----|
|-----------|---------|
|-----------|---------|
|-----------|---------|
|-----------|---------|



Tap to rate this tab
# A B C D E F G H I J K L M N O P Q R S T U V W X Y Z