Song name
# A B C D E F G H I J K L M N O P Q R S T U V W X Y Z

Sharks - Fallen On Deaf Ears tab

-------------------------------------------------------------------------------
			     Fallen on Deaf Ears - Sharks
-------------------------------------------------------------------------------
Tabbed by: Matt Harrison
Email: matt@thegreatleapforwards.com

Tuning: 1/2 step down

I'm only doing the Rhythm part today.


eb|---------------------------------------------------------------------------|
Bb|---------------------------------------------------------------------------|
Gb|----7----------------------------------------------------------------------|
Db|----7----let ring----------------------------------------------------------|
Ab|----5----------------------------------------------------------------------|
Eb|---------------------------------------------------------------------------|

Verse

eb|---------------------------------------------------------------------------|
Bb|---------------------------------------------------------------------------|
Gb|---7-----------------------------------------------------------------------|
Db|---7---9---5--7------------------------------------------------------------|
Ab|---5---9---5--7---x2-------------------------------------------------------|
Eb|-------7---3--5------------------------------------------------------------|

Pre Chorus

eb|--------------------------------------------------------------------------|
Bb|--------------------------------------------------------------------------|
Gb|---7--9--11---------------------------------------------------------------|
Db|---x--x--x---5------------------------5-----------------------------------|
Ab|---5--7--9---5-let ring---x2 then-----5-----------------------------------|
Eb|-------------3------------------------3-----------------------------------|
					 PM.....................
Chorus

eb|---------------------------------------------------------------------------|
Bb|---------------------------------------------------------------------------|
Gb|--7---------------7--------------------------------------------------------|
Db|--7-5--9--7--5----7--5--9--7--5--7-----------------------------------------|
Ab|--5-5--9--7--5----5--5--9--7--5--7-----------------------------------------|
Eb|----3--7--5--3-------3--7--5--3--5-----------------------------------------|

Break...

eb|---------------------------------------------------------------------------|
Bb|---------------------------------------------------------------------------|
Gb|---11-11/9--9/7--7/2-------------------------4--2--------------------------|
Db|---x--x-/x--x/x--x/2--x3---On third time add-x--2--------------------------|
Ab|---9--9-/7--7/5--5/0-------------------------2--0--------------------------|
Eb|---------------------------------------------------------------------------|

2nd Verse. Just strum the same Verse chords once each

2nd Chorus just bass, then lead. Rhythm returns in with...

eb|---------------------------------------------------------------------------|
Bb|---------------------------------------------------------------------------|
Gb|---------------------------------------------------------------------------|
Db|---9---7----5----5---------------------------------------------------------|
Ab|---9---7----5----5---------------------------------------------------------|
Eb|---7---5----3----3---------------------------------------------------------|
		    PM................

Then Chorus chords twice through.
End with...
eb|-------------------------------------------------------------------------------|
Bb|-------------------------------------------------------------------------------|
Gb|-------------------------------------------------------------------------------|
Db|---9---7----5------------------------------------------------------------------|
Ab|---9---7----5------x2----------------------------------------------------------|
Eb|---7---5----3------------------------------------------------------------------|


************************************

| /   slide up
| \   slide down
| h   hammer-on
| p   pull-off
| ~   vibrato
| +   harmonic
| x   Mute note
| b   Bend
| pb  Pre-bend
| br  Bend release
| pbr Pre-bend release
| brb Bend release bend

************************************
Tap to rate this tab
# A B C D E F G H I J K L M N O P Q R S T U V W X Y Z