Song name
# A B C D E F G H I J K L M N O P Q R S T U V W X Y Z

Sharks - It All Relates tab

-------------------------------------------------------------------------------
			     It all Relates - Sharks
-------------------------------------------------------------------------------
Tabbed by: Matt Harrison
Email: matt@thegreatleapforwards.com

Tuning: 1/2 step down

I'm only doing the Rhythm part today.

Intro

eb|----3-3----------------3---------------------------------------------------|
Bb|----3-3--------------0-3---------------------------------------------------|
Gb|----0-0--------------2-0---------------------------------------------------|
Db|----0-0--------------2-0---------------------------------------------------|
Ab|----2-2---x2---then--0-2---------------------------------------------------|
Eb|----3-3----------------3---------------------------------------------------|

Verse, Andrew does stuff that I can't work out.
Rhythm comes back in at 0'22"
These are just the chords. Listen to get the Rhythm, its cool and stabby.

eb|---3--3--3--3--3--3--2-----------------------------------------------------|
Bb|---3--3--3--3--3--3--3-----------------------------------------------------|
Gb|---0--0--0--0--0--0--2-----------------------------------------------------|
Db|---0--2--0--2--0--2--0-----x2----------------------------------------------|
Ab|---2--3--2--3--2--2--------------------------------------------------------|
Eb|---3-----3-----3--0--------------------------------------------------------|

Chorus
                                                       "I could do with some daylight"
eb|---3--3--2---3--0--3-------3--3--2--0--0-------------3---------------------|
Bb|---3--3--3---3--0--3-------3--3--3--0--2-------------3---------------------|
Gb|---0--0--2---0--0--0-------0--0--2--0--2-------------0---------------------|
Db|---2--0--0---2--2--0-------2--0--0--2--2-------------2---------------------|
Ab|---3--2------3--2--2-------3--2-----2--0--x2--add on 3---2nd time----------|
Eb|------3---------0--3----------3-----0--------------------------------------|

Break

eb|-----3---0--------0--1--3---------------------------------------------------|
Bb|-----3---0--------2--1--3---------------------------------------------------|
Gb|-----0---0--------2--2--0---------------------------------------------------|
Db|-----0---2--------2--3--0---------------------------------------------------|
Ab|-----2---2---x2---0--3--2---------------------------------------------------|
Eb|-----3---0-----------1--3---------------------------------------------------|

Verse 2 same as Verse 1 with short break in middle after "It All Relates..." just noodle 
around on G at that point

Chorus, same as before

Then into the Middle 8

eb|-----3--3--0--0--3----------------------------------------------------------|
Bb|-----3--3--0--2--3----------------------------------------------------------|
Gb|-----0--0--0--2--0----------------------------------------------------------|
Db|-----0--0--2--2--2----------------------------------------------------------|
Ab|-----2--0--2--0--3-x2-------------------------------------------------------|
Eb|-----3--2--0----------------------------------------------------------------|

Vocals return here playing...

eb|-----3--2--3----------------------0--3--------------------------------------|
Bb|-----3--3--3----------------------2--3--------------------------------------|
Gb|-----0--2--0----------------------2--0--------------------------------------|
Db|-----0--0--2----------------------2--2--------------------------------------|
Ab|-----2-----3---x3 on 3rd time add 0--3--------------------------------------|
Eb|-----3----------------------------------------------------------------------|

Outro, (Andrew Soloing)

eb|-----3--2--3-------3--2--0--3--3--2--3-3-3-----------------------------------|
Bb|-----3--3--3-------3--3--0--3--3--3--3-3-3-----------------------------------|
Gb|-----0--2--0-------0--2--0--0--0--2--0-0-0-----------------------------------|
Db|-----0--0--2-------0--0--2--2--0--0--0-0-0-----------------------------------|
Ab|-----2-----3---x2--2-----2--3--2-----2-2-2-----------------------------------|
Eb|-----3-------------3-----0-----3-----3-3-3-----------------------------------|
					Stabbed chords to end.

************************************

| /   slide up
| \   slide down
| h   hammer-on
| p   pull-off
| ~   vibrato
| +   harmonic
| x   Mute note
| b   Bend
| pb  Pre-bend
| br  Bend release
| pbr Pre-bend release
| brb Bend release bend

************************************
Tap to rate this tab
# A B C D E F G H I J K L M N O P Q R S T U V W X Y Z