Song name
# A B C D E F G H I J K L M N O P Q R S T U V W X Y Z

Sharks - Sweet Harness tab

-------------------------------------------------------------------------------
			     Sweet Harness - Sharks
-------------------------------------------------------------------------------
Tabbed by: Matt Harrison
Email: matt@thegreatleapforwards.com

Tuning: 1/2 step down

I'm only doing the Rhythm part today.

Essentially the song is a few variations on the same chord progressions.

Intro

eb|--2-0-0-3--0--3--------------------------------3-3-3-----------------------|
Bb|--3-3-3-3--2--3--------------------------------3-3-3-----------------------|
Gb|--2-0-0-0--2--0--------------------------------0-0-0-----------------------|
Db|--0-2-2-0--2--0--------------------------------0-0-2-----------------------|
Ab|----2-0-2--0--2----x 2----after 2nd time add---2-0-2-----------------------|
Eb|----0-2-3-----3--------------------------------3-2-0-----------------------|

Verse (note the slight variation)

eb|---2-----0--0--3----0--3--0--0--3------------------------------------------|
Bb|---3--2--0--0--3----2--3--0--0--3------------------------------------------|
Gb|---2--2--0--0--0----2--0--0--0--0------------------------------------------|
Db|---0--2--2--2--0----2--0--2--2--0------------------------------------------|
Ab|------0--2--0--2----0--2--2--0--2-----x2-----------------------------------|
Eb|---------0--2--3-------3--0--2--3------------------------------------------|

Chorus (same as intro)

eb|--2-0-0-3--0--3------------------------------------------------------------|
Bb|--3-3-3-3--2--3------------------------------------------------------------|
Gb|--2-0-0-0--2--0------------------------------------------------------------|
Db|--0-2-2-0--2--0------------------------------------------------------------|
Ab|----2-0-2--0--2----x 2----then again x2 whilst andrew Solos----------------|
Eb|----0-2-3-----3------------------------------------------------------------|

2nd Verse same as before but add the bit below at "Keeping the sun down..."

eb|---0----------3-------------0----------------------------------------------|
Bb|---0----------3-------------2----------------------------------------------|
Gb|---0----------0-------------2----------------------------------------------|
Db|---2-let ring-0-let ring----2----------------------------------------------|
Ab|---2----------2-------------0----------------------------------------------|
Eb|---0----------3------------------------------------------------------------|

Chorus
Then change to verse chords at "Only me, easy Chemistry" play through chord progression twice,
on 3rd time change to...

eb|---2-----0--0--3---0-----3--3--0--3--0-------------------------------------|
Bb|---3--2--0--0--3---2-----3--3--0--3--2-------------------------------------|
Gb|---2--2--0--0--0---2--4--0--0--0--0--2-------------------------------------|
Db|---0--2--2--2--0---2--4--0--0--2--0--2-------------------------------------|
Ab|------0--2--0--2---0--2--2--0--2--2--0-------------------------------------|
Eb|---------0--2--3---------3--2--0--3----------------------------------------|

Outro


eb|---------------3--0---------------------------------------------------------|
Bb|---------------3--2---------------------------------------------------------|
Gb|---7--7--4-2---0--2---------------------------------------------------------|
Db|---7--7--4-2---0--2---------------------------------------------------------|
Ab|---5--4--2-0---2--0--x2-----------------------------------------------------|
Eb|---------------3------------------------------------------------------------|


End with...
eb|----2-----------------------------------------------------------------------|
Bb|----3-----------------------------------------------------------------------|
Gb|----2-----------------------------------------------------------------------|
Db|----0-----------------------------------------------------------------------|
Ab|----------------------------------------------------------------------------|
Eb|----------------------------------------------------------------------------|

And there you have it. Its a great song and when you find the Rhythm you'll have fun 
with all the open chords.



************************************

| /   slide up
| \   slide down
| h   hammer-on
| p   pull-off
| ~   vibrato
| +   harmonic
| x   Mute note
| b   Bend
| pb  Pre-bend
Tap to rate this tab
 
# A B C D E F G H I J K L M N O P Q R S T U V W X Y Z