Song name
# A B C D E F G H I J K L M N O P Q R S T U V W X Y Z

Sharks - Able Moving Hearts tab

e-----------------7------------------------------------|
B-----------7-----------9-----7-------------11---------|
G--------8-----8--------------------9----------11----4-|
D----/9--------------9-----9-----7-----(9)--------11---|
A------------------------------------------------------|
E------------------------------------------------------|

e----7-------------------------------------------7-----|
B-------4-----4-h5p4-----------------------7--9--------|
G----------4----------6--4-----------6--8--------------|
D---------------------------6--4-/8--------------------|
A------------------------------------------------------|
E------------------------------------------------------|

e-------11----9-----7-------7--7h9p7-------------------|
B----9-----9-----9-----7/9------------9--7-------------|
G-------------------------------------------8--6-------|
D------------------------------------------------------|
A------------------------------------------------------|
E------------------------------------------------------|

e------------------------------------------------------|
B----0-------0-------7-----5-----4---------------------|
G-------8b9b8---6\4-----4-----4------------------------|
D------------------------------------------------------|    x2
A-----------------------------------4--6--/9-----------|
E------------------------------------------------------|
Tap to rate this tab
 
# A B C D E F G H I J K L M N O P Q R S T U V W X Y Z