Guitaretab - guitar tabs
Song name
# A B C D E F G H I J K L M N O P Q R S T U V W X Y Z

Sharon Jones And The Dap-kings - Nobodys Baby tab

Sharon Jones & the Dap-Kings  Nobody's Baby
Ryan.c


first of, best band ive herd all year and this is a sick album as well.

song aint that hard to play but you need to list to it to get the timing right.

if you got any corrections/suggestions about the tab just
Email me at chhang7@hotmail.com

intro/verse

(Bass)
e|-----------------------------------|
B|-----------------------------------|
G|-----------------------------------|    
D|-----------------------------------|     
A|-----------------------------------|
E|-13-15-15--13-15-15--6-8-8--6-8-8--|


1st Guitar

e|------------------------|
B|------------------------|
G|------------------------|    
D|------------------------|     
A|-----1----------1-------|
E|-1-3---3-1---1-3---3-1--|


2nd guitar

e|-3--3--xx--3--3------|
B|-3--3--xx--5--5------| 
G|---------------------|    
D|---------------------|     
A|---------------------|
E|---------------------|


chorus

2nd guitar

e|--------8-8---|
B|-8-8----8-8---| 
G|-7-7----------|    
D|--------------|     
A|--------------|
E|--------------|
[ Tab from: http://www.guitaretab.com/s/sharon-jones-and-the-dap-kings/108142.html ]
1st guitar
(you may want to hammer-on the single notes on the e string, then play the chord)

e|-12h14--10h12--8h10--7h8--5h7--3h5---------|
B|-12-----10-----8-----7----5----3----8/7----| 
G|------------------------------------7------|    
D|-------------------------------------------|     
A|-------------------------------------------|
E|-------------------------------------------|


2nd guitar

e|--------8-8---|
B|-8-8----8-8---| 
G|-7-7----------|    
D|--------------|     
A|--------------|
E|--------------|

1st guitar

e|-12h14--10h12--8h10\-----|
B|-12-----10-----8---\-----| 
G|-------------------------|    
D|-------------------------|     
A|-------------------------|
E|-------------------------|


verse


chorus

2nd guitar

e|--------8-8---|
B|-8-8----8-8---| 
G|-7-7----------|    
D|--------------|     
A|--------------|
E|--------------|


1st guitar

e|-12h14--10h12--8h10--7h8--5h7--3h5---------|
B|-12-----10-----8-----7----5----3----5/7\5--| 
G|------------------------------------5/7\5--|    
D|-------------------------------------------|     
A|-------------------------------------------|
E|-------------------------------------------|









Related for Nobodys Baby tab