Song name
# A B C D E F G H I J K L M N O P Q R S T U V W X Y Z

Sharon Jones And The Dap-kings - Let The Knock tab

Sharon Jones & the Dap-Kings- Let Them Knock
Ryan.C

one of the best songs on the album. ill fix this tab up later cus i know some parts are wrong(ish)
so if you got any corrections/suggestions about the tab just
Email me at chhang7@hotmail.com



Intro

e|-----------------------------------|
B|-----------------------------------|
G|-----------------------------------|    
D|-5-3-------------------------------|     
A|-----6-5-3-------------------------|
E|-----------6-5--5-6-7-8------------|


chorus

ill fix this up later, theres alot of muting and scratiching 
going on so listen to it to get it right.

e|--3-------3----------(4)--(4)--|
B|--4---4---4---4-----4-4--4-4---|
G|--6-6--6--6-6---4---5-5--5-5---|    
D|-------------------------------|     
A|-------------------------------|
E|-------------------------------|


verse

1st guitar

e|-------------------------------------------------------------------------|
B|------------4-------------4------------------6-------------6-------------|    
G|-5--5-5-5-5-5--5--5-5-5-5-5---5-6-7--7-7-7-7-7--7--7-7-7-7-7--7-6-5------|     
D|-------------------------------------------------------------------------|
A|-------------------------------------------------------------------------|
E|-------------------------------------------------------------------------|


2nd guitar

e|-------------------------------------------------------------------------|
B|-------------------------------------------------------------------------|    
G|-------------------------------------------------------------------------|     
D|--------3-3h4-3--------------5-5h6-5-------------------------------------|
A|---3-6----------6---3----5-8---------8-----------------------------------|
E|-4---------------------6-------------------------------------------------|


fill
e|------------------------------------------------|
B|---------------x------15-15-15------18-18-18----|
G|5-6-7--7-7-7-7-x--/15-15-15-15---19-19-19-19----|    
D|---------------x--------------------------------|     
A|------------------------------------------------|
E|------------------------------------------------|


Pre-chorus

e|--------------------------------------------------------------------------|
B|----------8----------6----------4----------3------------------------------|    
G|--8-8-8-8-8--7-7-7-7-7--5-5-5-5-5--3-3-3-3-3---------2--------------------|     
D|---------------------------------------------------3----------------------|
A|-------------------------------------------------3------------------------|
E|-----------------------------------------------1---------2-3-4------------|

Chorus


Verse

Fill 2


e|-------------------------------------------------18-18-18-|
B|---------------x------15-15-15------18-18-18-----x--x--x--|
G|5-6-7--7-7-7-7-x--/---15-15-15------19-19-19--------------|    
D|---------------x------------------------------------------|     
A|----------------------------------------------------------|
E|----------------------------------------------------------|


Chorus


middle bit


e|-------------------------------------------------------------|
B|-------------------------------------------------------------|    
G|-------------------------------------------------------------|     
D|--------------------------3-5-3/5\1---------3-5-3/5\1--------|
A|--6-6-6-5-5-5-4-4-4---3-6-----------3---3-6-----------3------|
E|-------------------------------------------------------------|


e|---------------------------------------------|
B|----------8----------------------------------|    
G|------5-8-8-5-5/8-5--------------------------|     
D|--5-8---------5/8\5--------------------------|
A|---------------------6-6-6-5-5-5-4-4-4-------|
E|---------------------------------------------|



e|--------------------------------------------------------------------------|
B|-------------------------------5-3-----------9/8--------------------------|    
G|-------------------------------5-3-------5-8-8------------------8---------|     
D|---------3-5-3/5\1---------3-5-----5-5-8--------------9---------9---------|
A|-----3-6-----------3---3-6-----------------------------9----6-9---9--6----|
E|----------------------------------------------------------7------------7--|




verse

it moves up a semi tone ( 1 fret to the right)

fill
e|-----------------------------------------------------|
B|---------------x------16-16-16------19-19-19--18--17-|
G|6-7-8--8-8-8-8-x--/---16-16-16------20-20-20--19--18-|    
D|---------------x-------------------------------------|     
A|-----------------------------------------------------|
E|-----------------------------------------------------|


pre-chorus and chorus

moves up a semi tone as well


ending



e|--------------------------------------------------------------------------------------|
B|----------------------------------------------------(4)-------------------------------|    
G|--------------------------------------------------6--4--------------------------------|     
D|---------------------------4-6--6-4-2---------4-6-6----------(9)----------------------|
A|--7-7-7-6-6-6--5-5-5---4-7------------4---4-7-----------7-4--(7)---7-7-7-6-6-6-5-5-5--|
E|--------------------------------------------------------------------------------------|



e|----------------------------------------------------------------------------------------|
B|----------------------------------------------------------------------------------------|    
G|---------x-x-x-6-x-x-x-6---------x-x-x-6-x-x-x-7------6-9--6-4--------------------------|     
D|-----4-6---------------------4-6------------------6-9------6---6-4----------------------|
A|-4-7---------------------4-7---------------------------------------7--7-7-7-6-6-6-5-5-5-|
E|----------------------------------------------------------------------------------------|



e|------------------------4-----------------12-------15-----17-------|
B|--------------------5-7---5h7p5-----5------------------------------|    
G|---------4----6-4-6-------------4/6-----13---13--15--15---17-------|     
D|-----4-6---6-------------------------------------------------------|
A|-4-7---------------------------------------------------------------|
E|-------------------------------------------------------------------|



Tap to rate this tab
# A B C D E F G H I J K L M N O P Q R S T U V W X Y Z