Song name
# A B C D E F G H I J K L M N O P Q R S T U V W X Y Z

Sharon Jones And The Dap-kings - Mama Dont Like My Man tab

Sharon Jones And The Dap-kings - Mama Don't Like My Man

Tab by Bastien

Standard tuning
Tempo = 110
Shuffle

Enjoy!

--------------------

Intro:

E |----------------|--8----|
B |-----------8----|-------|
G |--------8-------|-------|
D |-----8----------|-------|
A |--6-------------|-------|
E |----------------|-------|


Verse (x4):

E ||-3-----3--3--3-------------|--3-----3--3----------------|
B ||-4-----4--4--4-------------|--4-----4--4----------------|
G ||o5-----5--5--5-------------|--5-----5--5----------------|
D ||o5-----5--5--5-------------|--5-----5--5----------------|
A ||-3-----3--3--3-------------|--3-----3--3-----------5----|
E ||----------------3--6-------|--------------8--6--8-------|


----------------------------|---------------------------||
--8-----8--8--8-------------|--8-----8--8---------------||
--8-----8--8--8-------------|--8-----8--8--------------o||
--8-----8--8--8-------------|--8-----8--8--------------o||
--6-----6--6--6--------5----|--6-----6--6--10-8--6--8---||
-----------------6--8-------|---------------------------||


Chorus:

--3-----3--3--3-------------|--3-----3--3--3-----3--3----|
--4-----4--4--4-------------|--4-----4--4--4-----4--4----|
--5-----5--5--5-------------|--5-----5--5--5-----5--5----|
--5-----5--5--5-------------|--5-----5--5--5-----5--5----|
--3-----3--3--3-------------|--3-----3--3--3-----3--3----|
-----------------3--6-------|----------------------------|
easy...                              Loving him...


--6-----6--6--6-----6--6----|--6-------------------------|
--6-----6--6--6-----6--6----|--6-------------------------|
--7-----7--7--7-----7--7----|--7-------------------------|
--8-----8--8--8-----8--8----|--8-------------------------|
--8-----8--8--8-----8--8----|--8-------------------------|
--6-----6--6--6-----6--6----|--6-------------------------|
easy...                                  But mama...


--3-----3--3--3-------------|--3-----3--3----------------|
--4-----4--4--4-------------|--4-----4--4----------------|
--5-----5--5--5-------------|--5-----5--5----------------|
--5-----5--5--5-------------|--5-----5--5----------------|
--3-----3--3--3-------------|--3-----3--3-----------5----|
-----------------3--6-------|--------------8--6--8-------|


--------------------x-------|--x--6--6--7----||
--8-----8--8--8-----x-------|--x--6--6--7----||
--8-----8--8--8-----x-------|--x--7--7--8----||
--8-----8--8--8-----x-------|--x--8--8--9----||
--6-----6--6--6-----x-------|--x--8--8--9----||
--------------------x-------|--x--6--6--7----||



Outro:

E |----------------|--8----|
B |-----------8----|-------|
G |--------8-------|-------|
D |-----8----------|-------|
A |--6-------------|-------|
E |----------------|-------|
Tap to rate this tab
 
# A B C D E F G H I J K L M N O P Q R S T U V W X Y Z