Song name
# A B C D E F G H I J K L M N O P Q R S T U V W X Y Z

Sharon Van Etten - Consolation Prize tab

Capo 2 or 3 (its depend differents versions of the song) :

All the song :

C          C/B     Am
|--------------------------------------|
|--------------------------------------|
|---0---------------2---2---2----------|
|-----2-------0---2---2---2-------0----|
|-3-----3-2-----2-------------0/2------|
|-----------3--------------------------|

And sometimes :

F         G       Am
|--------------------------------------|
|--------------------------------------|
|---2---2---0---0---2---2---2----------|
|-3---3---0---0---2---2---2---0/2/0----|
|-----------------------------------2--|
|--------------------------------------|

So :

C     C/B       Am

C     C/B     Am
I came to you,
C     C/B     Am
My conscience clean,
C      C/B       Am
Blood on my knees.

F             
The moral of the story is
G                  Am
Don't walk away again.

C       C/B     Am
I called you out,
C      C/B    Am
To see my bow,
C     C/B     Am
Our final scene.

F             
The moral of the story is
G                Am
Don't look away again,
G   F            G           Am
To find a better conversation.

C    C/B       Am
     Hmmmmmm   Hmmmmmm
C    C/B       Am
     Hmmmmmm   Hmmmmmm

C    C/B       Am
I saw you there,
C       C/B       Am
Your friends aware,
C      C/B     Am
Without a care.

F
The moral of the story is
G                Am
Don't lie to me again
G  F             G           Am
To find a better conversation,
G  F             G            Am
So I can be your consolation prize

C   C/B       Am
     Hmmmmmm  Hmmmmmm
C   C/B       Am
     Hmmmmmm  Hmmmmmm

C   C/B   Am
You ran away
C    C/B      Am
To stand your ground,
C     C/B     Am
Look what I found.

F
The moral of the story is
G                Am
Don't walk away again,
G   F            G            Am
To find a better conversation,
G  F             G            Am
So I can be your consolation prize.
G   F            G            Am
To find a better conversation,
G     F                G             Am(all strings once)
No, I'll never be your consolation prize.
Tap to rate this tab
# A B C D E F G H I J K L M N O P Q R S T U V W X Y Z