Song name
# A B C D E F G H I J K L M N O P Q R S T U V W X Y Z

Shattered Realm - All Will Suffer tab

Drop C Tuning (C G C F A D) Tune 1/2 step up from this for the EP
/  - Slide 
v  - Vibrato
.  - Palm mute
~  - Let ring
<> - Pinch harmonic 

Intro
D|--------------------------------------------------------|
A|--------------------------------------------------------|
F|--------------------------------------------------------|
C|-0-0-----------0-0----6-5----0-0-----------0-0----6-5v--|
G|-0-0--5/13-12--0-0--5-----6--0-0--5/13-12--0-0--5-------|
C|-0-0-----------0-0-----------0-0-----------0-0----------|
   . .           . .           . .           . .
D|--------------------------------------------------------|
A|--------------------------------------------------------|
F|----------------------8-7-------------------------8-7v--|
C|-0-0--7/15-14--0-0--7-----8--0-0--7/15-14--0-0--7-------|
G|-0-0-----------0-0-----------0-0-----------0-0----------|
C|-0-0-----------0-0-----------0-0-----------0-0----------|
   . .           . .           . .           . .
D|--------------------------------------------------------|
A|--------------------------------------------------------|
F|--------------------------------------------------------|
C|-0-0-----------0-0----6-5----0-0-----------0-0----6-5v--|
G|-0-0--5/13-12--0-0--5-----6--0-0--5/13-12--0-0--5-------|
C|-0-0-----------0-0-----------0-0-----------0-0----------|
   . .           . .           . .           . .
D|---------------------------------------------------------|
A|---------------------------------------------------------|
F|----------------------8-7--------------------------------|
C|-0-0--7/15-14--0-0--7-----8--0-0--7/15-14--0-0--1-1-1-1--|
G|-0-0-----------0-0-----------0-0-----------0-0--1-1-1-1--|
C|-0-0-----------0-0-----------0-0-----------0-0--1-1-1-1--|
   . .           . .           . .           . .  . . . 

Verse
D|---------------------------------------------------|
A|---------------------------------------------------|
F|---------------------------------------------------|
C|-0-0-0--0-0--0-0--5---6----0-0-0--0-0--0-0--5------|  x2
G|-0-0-0--0-0--0-0----8---7--0-0-0--0-0--0-0----8-5--|
C|-0-0-0--0-0--0-0-----------0-0-0--0-0--0-0---------|
   . .    .                  . . .  .
D|---------------------------------------------|
A|---------------------------------------------|
F|---------------------------------------------|
C|-0-0-0--0-0-0--5---6----0-0-0--0-0-0--5------|
G|-0-0-0--0-0-0----8---7--0-0-0--0-0-0----8-5--|  x2
C|-0-0-0--0-0-0-----------0-0-0--0-0-0---------|
   . . .  . . .           . . .  . . .
D|---------------------------------------------------|
A|---------------------------------------------------|
F|---------------------------------------------------|
C|-0-0-0--0-0--0-0--5---6----0-0-0--0-0--0-0--5------|
G|-0-0-0--0-0--0-0----8---7--0-0-0--0-0--0-0----8-5--|  x2
C|-0-0-0--0-0--0-0-----------0-0-0--0-0--0-0---------|
   . .    .                  . . .  .
D|--------|
A|--------|
F|--------|
C|-0-0-0--|
G|-0-0-0--|  x1
C|-0-0-0--|
   . . .

Breakdown
D|-----------------------------------------------|
A|-----------------------------------------------|
F|-----------------------------------------------|
C|-0-1-4-3-1-0--0-1-0----0-1-4-3-------0--0-1-0--|
G|-0-1-4-3-1-0--0-1-0----0-1-4-3--<7>--0--0-1-0--|  x2
C|-0-1-4-3-1-0--0-1-0----0-1-4-3-------0--0-1-0--|
   . . . . . .  . . .    . . . .       .  . . .
D|---------------------|
A|---------------------|
F|---------------------|
C|-0-1-4-3-1-0--0-1-0--|
G|-0-1-4-3-1-0--0-1-0--|   x3
C|-0-1-4-3-1-0--0-1-0--|
   . . . . . .  . . .
D|-----------------------------------------------|
A|-----------------------------------------------|
F|-----------------------------------------------|
C|-0-1-4-3-1-0--0-1-0----0-1-4-3-------0--0-1-0--|
G|-0-1-4-3-1-0--0-1-0----0-1-4-3--<7>--0--0-1-0--|  x2
C|-0-1-4-3-1-0--0-1-0----0-1-4-3-------0--0-1-0--|
   . . . . . .  . . .    . . . .       .  . . .

Chorus
D|------------------|
A|------------------|
F|------------------|
C|-0~--0~--5---6----|
G|-0~--0~----8---7--|  x2
C|-0~--0~-----------|

D|---------------------------------------------|
A|---------------------------------------------|
F|---------------------------------------------|
C|-0-0-0--0-0-0--5---6----0-0-0--0-0-0--5------|
G|-0-0-0--0-0-0----8---7--0-0-0--0-0-0----8-5--| x2
C|-0-0-0--0-0-0-----------0-0-0--0-0-0---------|
   . . .  . . .           . . .  . . .

D|----------------------------------|
A|----------------------------------|
F|----------------------------------|
C|-0-0-0--0-0-0----0-0-0--0-0-0--4--|
G|-0-0-0--0-0-0----0-0-0--0-0-0--4--| x6
C|-0-0-0--0-0-0----0-0-0--0-0-0--4--|
   . . .  . . .    . . .  . . . 

D|--------|
A|--------|
F|--------|
C|-0-0-0--|
G|-0-0-0--|  x1
C|-0-0-0--|
   . . .
Tap to rate this tab
 
# A B C D E F G H I J K L M N O P Q R S T U V W X Y Z