Song name
# A B C D E F G H I J K L M N O P Q R S T U V W X Y Z

Shattersphere - To No Avail tab

-------------------------------------------------------------------------------
	       Shattersphere - To No Avail
-------------------------------------------------------------------------------
Tabbed by:Solopractice (sabun)       
Email:linkinpark_neon@yahoo.com 
                                       U can check the song out on my profile.
Tuning:Drop D
Tempo:180

   Intro


   Guitar 1
e|----------------|----------------|----------------|-------------------------|
B|----------------|----------------|----------------|-----------15------------|
G|---15-15-14-15--|---15-15-14-15--|---15-15-14-15--|--12-15-14----15-14------|--|
D|----------------|----------------|----------------|-------------------------|  | 
A|----------------|----------------|----------------|-------------------------|  |
D|----------------|----------------|----------------|-------------------------|  |
                                                                                 |--(2x)
  Guitar 2                                                                       |
e|----------------|----------------|----------------|-------------------------|  |
B|----------------|----------------|----------------|-------------------------|  | 
G|---12-12-11-12--|---12-12-11-12--|---12-12-11-12--|----(rest)---------------|  |
D|----------------|----------------|----------------|-------------------------|--|
A|----------------|----------------|----------------|-------------------------|
D|----------------|----------------|----------------|-------------------------|

 Then the rythm guitar joins in.(guitar 1 and 2 play the same thing twice again)

e|---------------|----------------|----------------|--------------------------|
B|---------------|----------------|----------------|--------------------------|
G|---------------|--3-------------|----------------|--------------------------|
D|--0------------|--3-3-3---------|--3-------------|--5-----------------------|(2x)
A|--0-0-0--------|--1-1-1---------|--3-3-3---------|--5-5-5-------------------|
D|--0-0-0--------|----------------|--3-3-3---------|--5-5-5-------------------|
      + +             + +              + +              + + 

   [VERSE]

   Rhythm and Lead
e|------------------|-----------------|------------------|------------------|
B|------------------|-----------------|------------------|------------------|
G|------------------|--3--------------|------------------|------------------|(2x)
D|--0---------------|--3-3-3-3-3-3-3--|--3---------------|--5---------------|
A|--0--0-0-0-0-0-0--|--1-1-1-1-1-1-1--|--3--3-3-3-3-3-3--|--5--5-5-5-5-5-5--|
D|--0--0-0-0-0-0-0--|-----------------|--3--3-3-3-3-3-3--|--5--5-5-5-5-5-5--|
       + + + + + +       + + + + + +        + + + + + +        + + + + + +

Then the beginning duet joins in again, rhythm stays the same as above.

   Rhythm and Lead
e|------------------|-----------------|------------------|------------------|
B|------------------|-----------------|------------------|------------------|
G|------------------|--3--------------|------------------|------------------|
D|--0---------------|--3-3-3-3-3-3-3--|--3---------------|--5---------------|
A|--0--0-0-0-0-0-0--|--1-1-1-1-1-1-1--|--3--3-3-3-3-3-3--|--5--5-5-5-5-5-5--|
D|--0--0-0-0-0-0-0--|-----------------|--3--3-3-3-3-3-3--|--5--5-5-5-5-5-5--|
       + + + + + +       + + + + + +        + + + + + +        + + + + + +

  Guitar 1
e|----------------|----------------|----------------|-------------------------|
B|----------------|----------------|----------------|-----------15------------|
G|---15-15-14-15--|---15-15-14-15--|---15-15-14-15--|--12-15-14----15-14------|
D|----------------|----------------|----------------|-------------------------|   
A|----------------|----------------|----------------|-------------------------| 
D|----------------|----------------|----------------|-------------------------|

  Guitar 2                         
e|----------------|----------------|----------------|-------------------------|
B|----------------|----------------|----------------|-------------------------| 
G|---12-12-11-12--|---12-12-11-12--|---12-12-11-12--|----(rest)---------------| 
D|----------------|----------------|----------------|-------------------------|
A|----------------|----------------|----------------|-------------------------|
D|----------------|----------------|----------------|-------------------------|

   Rhythm and Lead
e|------------------|-----------------|------------------|------------------|
B|------------------|-----------------|------------------|------------------|
G|------------------|--3--------------|------------------|------------------|
D|--0---------------|--3-3-3-3-3-3-3--|--3---------------|--5~--------------|
A|--0--0-0-0-0-0-0--|--1-1-1-1-1-1-1--|--3--3-3-3-3-3-3--|--5~--------------|
D|--0--0-0-0-0-0-0--|-----------------|--3--3-3-3-3-3-3--|--5~--------------|
       + + + + + +       + + + + + +        + + + + + +     

  Guitar 1
e|----------------|----------------|----------------|-------------------------|
B|----------------|----------------|----------------|-------------------------|
G|---15-15-14-15--|---15-15-14-15--|---15-15-14-15--|--14~--------------------|
D|----------------|----------------|----------------|-------------------------|   
A|----------------|----------------|----------------|-------------------------| 
D|----------------|----------------|----------------|-------------------------|

  Guitar 2                         
e|----------------|----------------|----------------|-------------------------|
B|----------------|----------------|----------------|-------------------------| 
G|---12-12-11-12--|---12-12-11-12--|---12-12-11-12--|----(rest)---------------| 
D|----------------|----------------|----------------|-------------------------|
A|----------------|----------------|----------------|-------------------------|
D|----------------|----------------|----------------|-------------------------|

 Then rhythm comes back in alone.(This is the last bit)
   Rhythm Guitar                 Lead Guitar
e|--------------|--------------|---------------|
B|--------------|--------------|---------------|
G|--------------|--------------|--12hb~--------|
D|--------------|--------------|---------------|
A|--5--5-5------|--3--5-5------|---------------|
D|--5--5-5------|--3--5-5------|---------------|

Then play the whol verse again without the last bit.

   [CHORUS]

   Rhythm and Lead    
e|------------------|------------------|------------------|----------------|
B|------------------|------------------|------------------|----------------|
G|----------2--2-2--|--3--3-3----------|----------2--2-2--|--2--3----------|
D|--0--0-0--2--2-2--|--3--3-3--3--3-3--|--0--0-0--2--2-2--|--2--3--3~------|  (2x)
A|--0--0-0--0--0-0--|--1--1-1--3--3-3--|--0--0-0--0--0-0--|--0--1--3~------|
D|--0--0-0----------|----------3--3-3--|--0--0-0----------|--------3~------|

  Rhythm guitar
e|-----------|----------|----------|
B|-----------|----------|----------|
G|-----------|----------|----------|(2x)
D|-----------|----------|----------|
A|-----------|----------|----------|
D|--3-1-3-0--|--3-1-3-0-|--3-1-3~--|

  Then lead joins in.Both guitars play same thing.
e|-----------|-----------|----------|
B|-----------|-----------|----------|
G|-----------|-----------|----------|(8x)
D|--3-1-3-0--|--3-1-3-0--|--3-1-3~--|
A|--3-1-3-0--|--3-1-3-0--|--3-1-3~--|
D|--3-1-3-0--|--3-1-3-0--|--3-1-3~--|

 Guitar 1 (during the above, at the near end of it guitar 1 plays this)
e|----------------------|
B|----------------------|
G|----------------------|(2x)
D|--10~--8-12~---7------|
A|-----------------8-5~-|
D|----------------------|

 || SOLO ||
  
   Guitar 1
e|----------------------------------------------|
B|----------------------------------------------|
G|----------------------------------------------|(2x)(alone)
D|--------------------------------12------------|
A|--5~-5-7-8-7~--7-8-10-8~--5-7-8----13-12-13---|
D|----------------------------------------------|

   Guitar 1
e|----------------------------------------------|
B|----------------------------------------------|
G|----------------------------------------------|
D|--------------------------------12------------|(6x)
A|--5~-5-7-8-7~--7-8-10-8~--5-7-8----13-12-13---|
D|----------------------------------------------|

   Guitar 2
e|----------------------------------------------|
B|-----------------------------------15---------|
G|--7~-7-9-10-9~-9-10-12-10~--7-9-10---15-14-15-|(2x)
D|----------------------------------------------|
A|----------------------------------------------|
D|----------------------------------------------|

  Guitar 2 
e|---------------------------------------------------------|
B|-------------------------------------------15------------|
G|--10~-10-12-14-12~--12-14-15-14~--10-12-14----15-14-15---|(2x)
D|---------------------------------------------------------|
A|---------------------------------------------------------|
D|---------------------------------------------------------|

  Guitar 2
e|----------------------------------------------------------|
B|-------------------------------------------15-------------|
G|--14~-14-15-17-15~--15-17-18-17~--14-15-17----15-14-15~---|(2x)
D|----------------------------------------------------------|
A|----------------------------------------------------------|
D|----------------------------------------------------------|

   Rhythm during the solo
e|------------------|-----------------|------------------|------------------|
B|------------------|-----------------|------------------|------------------|
G|------------------|--3--------------|------------------|------------------|(8x)
D|--0---------------|--3-3-3-3-3-3-3--|--3---------------|--5---------------|
A|--0--0-0-0-0-0-0--|--1-1-1-1-1-1-1--|--3--3-3-3-3-3-3--|--5--5-5-5-5-5-5--|
D|--0--0-0-0-0-0-0--|-----------------|--3--3-3-3-3-3-3--|--5--5-5-5-5-5-5--|
       + + + + + +       + + + + + +        + + + + + +        + + + + + +

   Rhythm End
e|-----------|
B|-----------|
G|-----------|
D|--0~-------|
A|--0~-------|
D|--0~-------|

  Guitar 1 End
e|---------|
B|---------|
G|---------|
D|---------|
A|---------|
D|--0/12~--|

   Interlude (if thats wat u call it)

   Lead Guitar (with acoustic pedal on)
e|------------|-------------|------------|------------|
B|------------|-------------|------------|------------|
G|------/2~---|--/3~--------|------/2~---|--2--3------|
D|--0~--/2~---|--/3~--/3~---|--0~--/2~---|--2--3--0~--|
A|--0~---0~---|--/1~--/3~---|--0~---0~---|--0--1--0~--|
D|--0~--------|-------/3~---|--0~--------|--------0~--|

   [CHORUS] (again)

   Rhythm and Lead    
e|------------------|------------------|------------------|----------------|
B|------------------|------------------|------------------|----------------|
G|----------2--2-2--|--3--3-3----------|----------2--2-2--|--2--3----------|
D|--0--0-0--2--2-2--|--3--3-3--3--3-3--|--0--0-0--2--2-2--|--2--3--3~------|  (2x)
A|--0--0-0--0--0-0--|--1--1-1--3--3-3--|--0--0-0--0--0-0--|--0--1--3~------|
D|--0--0-0----------|----------3--3-3--|--0--0-0----------|--------3~------|

   Rhythm and Lead
e|------------------|-----------------|------------------|------------------|
B|------------------|-----------------|------------------|------------------|
G|------------------|--3--------------|------------------|------------------| (2x)
D|--0---------------|--3-3-3-3-3-3-3--|--3---------------|--5---------------|
A|--0--0-0-0-0-0-0--|--1-1-1-1-1-1-1--|--3--3-3-3-3-3-3--|--5--5-5-5-5-5-5--|
D|--0--0-0-0-0-0-0--|-----------------|--3--3-3-3-3-3-3--|--5--5-5-5-5-5-5--|
       + + + + + +       + + + + + +        + + + + + +        + + + + + +
 
   [Outro]

  Guitar 1
e|----------------|----------------|----------------|-------------------------|
B|----------------|----------------|----------------|-----------15------------|
G|---15-15-14-15--|---15-15-14-15--|---15-15-14-15--|--12-15-14----15-14------|
D|----------------|----------------|----------------|-------------------------|   
A|----------------|----------------|----------------|-------------------------| 
D|----------------|----------------|----------------|-------------------------|

  Guitar 2                         
e|----------------|----------------|----------------|-------------------------|
B|----------------|----------------|----------------|-------------------------| 
G|---12-12-11-12--|---12-12-11-12--|---12-12-11-12--|----(rest)---------------| 
D|----------------|----------------|----------------|-------------------------|
A|----------------|----------------|----------------|-------------------------|
D|----------------|----------------|----------------|-------------------------|

   Rhythm 
e|------------------|-----------------|------------------|------------------|
B|------------------|-----------------|------------------|------------------|
G|------------------|--3--------------|------------------|------------------|
D|--0---------------|--3-3-3-3-3-3-3--|--3---------------|--5---------------|
A|--0--0-0-0-0-0-0--|--1-1-1-1-1-1-1--|--3--3-3-3-3-3-3--|--5--5-5-5-5-5-5--|
D|--0--0-0-0-0-0-0--|-----------------|--3--3-3-3-3-3-3--|--5--5-5-5-5-5-5--|
       + + + + + +       + + + + + +        + + + + + +        + + + + + +
 

  Guitar 1
e|----------------|----------------|-------------------------|
B|----------------|----------------|-------------------------|
G|---15-15-14-15--|---15-15-14-15--|--14~--------------------|
D|----------------|----------------|-------------------------|   
A|----------------|----------------|-------------------------| 
D|----------------|----------------|-------------------------|

  Guitar 2                         
e|----------------|----------------|-------------------------|
B|----------------|----------------|-------------------------| 
G|---12-12-11-12--|---12-12-11-12--|----(rest)---------------| 
D|----------------|----------------|-------------------------|
A|----------------|----------------|-------------------------|
D|----------------|----------------|-------------------------|

   Rhythm 
e|------------------|-----------------|------------------|
B|------------------|-----------------|------------------|
G|------------------|--3--------------|------------------|
D|--0---------------|--3-3-3-3-3-3-3--|--3~--------------|
A|--0--0-0-0-0-0-0--|--1-1-1-1-1-1-1--|--3~--------------|
D|--0--0-0-0-0-0-0--|-----------------|--3~--------------|
       + + + + + +       + + + + + +            

            || END ||
   

| /  slide up
| \  slide down
| h  hammer-on
| p  pull-off
| ~  vibrato
| +  harmonic
| x  Mute note
===============================================================================
Tap to rate this tab
# A B C D E F G H I J K L M N O P Q R S T U V W X Y Z