Song name
# A B C D E F G H I J K L M N O P Q R S T U V W X Y Z

Shattersphere - Lost In The Flames tab

Tabbed by XNub@hotmail.com

Tuning: Drop D
Low to High: D A D G B E

INTRO~
|-------------------------------------------------------------|
|-------------------------------------------------------------|
|-------------------------------------------------------------|
|-------------------------------------------------------------|         x2
|---00--0-1--00-0--0-5h7-5---00--0-1--00-0--0--7h8-7h8--------|
|---00--0-1--00-0--0-5h7-5---00--0-1--00-0--0--7h8-7h8--------|

PRE-CHORUS~

|-----------------------------------------------------|
|-----------------------------------------------------|
|-----------------------------------------------------|
|-----------------------------------------------------|
|---00--00--00--00--00---00----00--0-1--00-0--0-5h7-5-|
|---00--00--00--00--00---00----00--0-1--00-0--0-5h7-5-|

|------------------------------------------|
|------------------------------------------|
|------------------------------------------|
|------------------------------------------|
|---00--0-1---00-0--0--7h8-7h8-------------|
|---00--0-1---00-0--0--7h8-7h8-------------|


CHORUS~
|-------------------------------------------------------------|
|-------------------------------------------------------------|
|-------------------------------------------------------------|
|-------------------------------------------------------------|         x3
|---00--0-1--00-0--0-5h7-5---00--0-1--00-0--0--7h8-7h8--------|
|---00--0-1--00-0--0-5h7-5---00--0-1--00-0--0--7h8-7h8--------|

VERSE2~
|-------------------------------------------------------------|
|-------------------------------------------------------------|
|-------------------------------------------------------------|
|------------7----------7------------7-----------7------------|       x2
|------------5----------5------------5-----------5------------|
|---00---0-----00---0----00----0------00---0------------------|

CHORUS~
|-------------------------------------------------------------|
|-------------------------------------------------------------|
|-------------------------------------------------------------|
|-------------------------------------------------------------|    x2
|---00--0-1--00-0--0-5h7-5---00--0-1--00-0--0--7h8-7h8--------|
|---00--0-1--00-0--0-5h7-5---00--0-1--00-0--0--7h8-7h8--------|

PRE-VERSE~
|---------------------------------------|
|---------------------------------------|
|---------------------------------------|
|---------------------------------------|       x4
|---00----1--00--------------3h4h6------|
|---00----1--00---3h5h6-----------------|


BRIDGE~
|--------------------------------------------------------------------|
|--------------------------------------------------------------------|
|--------------------------------------------------------------------|
|--------------------------------------------------------------------|  x2
|----0---0---5---0----1--0--7--8--7---5--0--0--5--0--1--00-00--------|
|----0---0---5---0----1--0--7--8--7---5--0--0--5--0--1--00-00--------|
         x        x			   x

CHORUS~
|-------------------------------------------------------------|
|-------------------------------------------------------------|
|-------------------------------------------------------------|
|-------------------------------------------------------------|         x4
|---00--0-1--00-0--0-5h7-5---00--0-1--00-0--0--7h8-7h8--------|
|---00--0-1--00-0--0-5h7-5---00--0-1--00-0--0--7h8-7h8--------|

VERSE2~
|----------------------------------------------------------|
|----------------------------------------------------------|
|----------------------------------------------------------|
|------------7----------7------------7-----------7---------|       x2
|------------5----------5------------5-----------5---------|
|---00---0-----00---0----00----0------00---0---------------|


CHORUS~
|-------------------------------------------------------------|
|-------------------------------------------------------------|
|-------------------------------------------------------------|
|-------------------------------------------------------------|   x2
|---00--0-1--00-0--0-5h7-5---00--0-1--00-0--0--7h8-7h8--------|
|---00--0-1--00-0--0-5h7-5---00--0-1--00-0--0--7h8-7h8--------|

PRE~VERSE
|---------------------------------------|
|---------------------------------------|
|---------------------------------------|
|---------------------------------------|       x4
|---00----1--00--------------3h4h6------|
|---00----1--00---3h5h6-----------------|

BRIDGE~
|-----------------------------------------------------------------|
|-----------------------------------------------------------------|
|-----------------------------------------------------------------|
|-----------------------------------------------------------------|   x2
|----0---0---5---0----1--0--7--8--7---5--0--0--5--0--1--00-00-----|
|----0---0---5---0----1--0--7--8--7---5--0--0--5--0--1--00-00-----|
         x        x			   x


PRE-SOLO~
|-----------------------------------------------------------|
|-----------------------------------------------------------|
|-------7-----5----5/-6----7----5----5/--4------------------|
|-----------------------------------------------------------|     x2
|-------5-----3----3/-4----5----3----3/--2------------------|
|--00------0----0-------00---0----0-------------------------|

SOLO~

|--------12-----------------------------------|
|--/12------13--12-----------12-13-13^--14^---|
|--------------------14---14------------------|
|---------------------------------------------|
|---------------------------------------------|
|---------------------------------------------|


|----------------------18-16-------21^^^--------|
|-----------------------------18----------------|
|-----16--15h16---14~---------------------------|
|-----------------------------------------------|
|-----------------------------------------------|
|-----------------------------------------------|

PRE~OUTRO
|---------------------------------------|
|---------------------------------------|
|---------------------------------------|
|---------------------------------------|       x2
|---00----1--00--------------5h6h8------|
|---00----1--00---3h5h6-----------------|

Any help needed, if you would like to be tought live by video add my msn, and we could
out a lesson. the tabs are made from ear, in fact this piece took a time whole song by 
im the composer of the first tabs also i just noticed a few errors and needed to fix them.
Tap to rate this tab
# A B C D E F G H I J K L M N O P Q R S T U V W X Y Z