Shattersphere - In The Face Of Anger tab

Artist-Shattersphere
Song-In The Face Of Anger
Album-In The Face Of Anger
Composer-Kyle Morrison Lovley
Transcribed by Shubhodeep Dey
Tuning-Drop D

Thank you very much for looking this tab.This is the 1st tab of this song and i'm 
obliged to write it up.
it is totally tabbed by ear.

Intro/Main riff-Riff 1:

e- --------------------------------------------------------------------------------------|
b- --------------------------------------------------------------------------------------|
g- --------------------------------------------------------------------------------------|
d- ---5----7h-----0--0------8-8---7--7----5--7h--5-7h--0-0-0--3-3--1-1-1-3h--------------|
a- ---5----7h-----0--0------8-8---7--7----5--7h--5-7h--0-0-0--3-3--1-1-1-3h--------------|
d- ---5----7h-----0--0------8-8---7--7----5--7h--5-7h--0-0-0--3-3--1-1-1-3h--------------|

Repeat riff 1 2 times until drums come in.Then when Morrison shouts 'go' repeat riff1 again.

Verse/Riff-2:

e- --------------------------------------------------------------------------------------|
b- --------------------------------------------------------------------------------------|
g- --------------------------------------------------------------------------------------|
d- --5--7h--0-0-0-0-0-0------------------------------------------------------------------|
a- --5--7h--0-0-0-0-0-0------------------------------------------------------------------|
d- --5--7h--0-0-0-0-0-0------------------------------------------------------------------|

Repeat riff 2 4 times during the verse.


Chorus/Riff-3:

e- --------------------------------------------------------------------------------------|
b- --------------------------------------------------------------------------------------|
g- --------------------------------------------------------------------------------------|
d- -0-0-0-7h-7-7-7-7s5s7-----------------------------------------------------------------|
a- -0-0-0-7h-7-7-7-7s5s7-----------------------------------------------------------------|
d- -0-0-0-7h-7-7-7-7s5s7-----------------------------------------------------------------|

Repeat riff 3 2 times during the chorus.

Repeat riff 1.
Repeat riff 2.
Repeat Riff 3.

Solo Rythm/riff-4:

e- ----------------------------------------------------------------------------------------|
b- ----------------------------------------------------------------------------------------|
g- ----------------------------------------------------------------------------------------|
d- --0-0-----0-0---------------------------------------------------------------------------|
a- --0-0-----0-0---------------------------------------------------------------------------|
d- --0-0-----0-0---------------------------------------------------------------------------|


Solo:

e- --------------------------------------------------------------13-10---13-10--13---------|
b- ------------------------------------------------------------10------10-----10-----------|
g- ------------------------12b-12-12-14-15---12b------14-15-14-----------------------------|
d- --------12-14-14s15-12b----------------15b----12-15-------------------------------------|
a- ----12----------------------------------------------------------------------------------|
d- ----------------------------------------------------------------------------------------|


e- ----15--12---15-12---15---17t18t-17t18t-15t-----------------------------------------------|
b- --10-------10------10-----------------------18t17t15t13t--15--------17--------18----------|
g- ------------------------------------------------------------15-14-15--15-14-15--15-14-15--|
d- ------------------------------------------------------------------------------------------|
a- ------------------------------------------------------------------------------------------|
d- ------------------------------------------------------------------------------------------|


e- ----------------------------------------------------------------------------------------|
b- --17-15-13------------------------------------------------------------------------------|
g- ----------------------------------------------------------------------------------------|
d- ------------------------------------------------------------12t-14t-15t--12t-14t-15t----|
a- ------------------------------------12t-14t-15t--12t-14t-15t----------------------------|
d- ------------12t-14t-15t--12t-14t-15t----------------------------------------------------|


e- ----------------------------------------------------------------------------------------|
b- ----------------------------------------------------------------------------------------|
g- --12t-14t-15t--12t-14t-15t--15b-14wb----------------------------------------------------|
d- ----------------------------------------------------------------------------------------|
a- ----------------------------------------------------------------------------------------|
d- ----------------------------------------------------------------------------------------|


end with riff 4.

Tabulature Legends:

h- hammer ons
s- slide
b- bends
t- tapping
wb- whammy
Tap to rate this tab
 
# A B C D E F G H I J K L M N O P Q R S T U V W X Y Z