Song name
# A B C D E F G H I J K L M N O P Q R S T U V W X Y Z

Shaun - Sweet tab

Help us improve GuitareTab! Take a short survey!
Drop "D" Tuning

Format:
Intro 2x
Verse 2x
Pre-Chorus 2x
End Pre-Chorus 1x
Chorus 4x
Interlube 1x
Verse 2x
Pre-Chorus 2x
End Pre-Chorus 1x
Chorus 4x
Solo 6x (Really Fast)
Chorus (As Many x's As U Want)(Fade Out)

Intro/Verses
|-------------------------------------------------|
|-------------------------------------------------|
|-------------------------------------------------|
|-x-x-5-x-x-6-x-x-5-x-x-6-x-x-5-x-x-6-x-x-5-x-x-6-|
|-x-x-5-x-x-6-x-x-5-x-x-6-x-x-5-x-x-6-x-x-5-x-x-6-|
|-x-x-5-x-x-6-x-x-5-x-x-6-x-x-5-x-x-6-x-x-5-x-x-6-|

Pre-Chorus
|----------------------------------------------|
|----------------------------------------------|
|----------------------------------------------|
|-x-5-x-5-x-5--6-6-6-6-6--5-x-5-x-5--3-3-3-3-3-|
|-x-5-x-5-x-5--6-6-6-6-6--5-x-5-x-5--3-3-3-3-3-|
|-x-5-x-5-x-5--6-6-6-6-6--5-x-5-x-5--3-3-3-3-3-|

End Pre-Chorus
|-------------|
|-------------|
|-------------|
|-x-5-x-5-x-5-|
|-x-5-x-5-x-5-|
|-x-5-x-5-x-5-|

Chorus
|------------------------------------|
|------------------------------------|
|------------------------------------|
|-7-7-7-7--5-5-5-5--2-2-2-2--4-4-4-4-|
|-7-7-7-7--5-5-5-5--2-2-2-2--4-4-4-4-|
|-7-7-7-7--5-5-5-5--2-2-2-2--4-4-4-4-|

Interlube
|--------------------------------|
|--------------------------------|
|--------------------------------|
|-6-6-6-6-6--5-5-5-5-5-----------|
|-6-6-6-6-6--5-5-5-5-5-----------|
|-6-6-6-6-6--5-5-5-5-5---x--x--x-|

|--------------------------------|
|--------------------------------|
|--------------------------------|
|-6-6-6-6-6--5-5-5-5-5-----------|
|-6-6-6-6-6--5-5-5-5-5-----------|
|-6-6-6-6-6--5-5-5-5-5---x--x--x-|

|-------------------------------------------|
|-------------------------------------------|
|-------------------------------------------|
|-6-6-6-6-6--7-7-7-7-7--5-5-5-5-5-----------|
|-6-6-6-6-6--7-7-7-7-7--5-5-5-5-5-----------|
|-6-6-6-6-6--7-7-7-7-7--5-5-5-5-5---x--x--x-|

Solo
|-3-5-3-5-3-5-6-6-6-6-6-5-3-5-3-5-3-3-3-3-3|
|------------------------------------------|
|------------------------------------------|
|------------------------------------------|
|------------------------------------------|
|------------------------------------------|

TELL ME WHAT U THINK. THIS SONG JUST CAME TO ME WHEN I WAS IN CLASS.
Related for Sweet tab