Song name
# A B C D E F G H I J K L M N O P Q R S T U V W X Y Z

Shaun - Nothing tab

Standard Tuning

Intro:
|------------------------------------------------|
|-----3---------3--------3---------3---------3---|
|---2---2-----2---2----2---2-----2---2-----2---2-|
|-0---------3--------0---------3---------0-------|
|------------------------------------------------|
|------------------------------------------------|

|-------------------|
|-----3---------3---|
|---2---2-----2---2-|
|-------------------|
|-3-----------------|
|-----------3-------|

HEY EVERYONE, CAN U GUYS HELP ME OUT? THIS IS ALL I HAVE FOR NOW BUT I CAN'T THINK OF ANYTHING THAT SOUNDS GOOD WITH IT. THANKS.
Tap to rate this tab
# A B C D E F G H I J K L M N O P Q R S T U V W X Y Z