Song name
# A B C D E F G H I J K L M N O P Q R S T U V W X Y Z

Shaun - Help Me tab

Help us improve GuitareTab! Take a short survey!
This Is The Best Song My Band Has. It Is A Great Song. But You Only Get One Part Of It. Sorry Guys.

SOUNDS GOOD PLAYED LIGHTLY ON AN ACOUSTIC

^ = Upstroke

Standard Tuning

|---------------------------------|-------------------------
|---------------------------------|-------------------------
|---------------------------------|-------------------------
|-9-9-9-9-9-9-9-9-9-9-9-9-9-9-9-9-|-9-9-9-9-9-9-9-9-9-9-9-9-
|-9-9-9-9-9-9-9-9-9-9-9-9-9-9-9-9-|-9-9-9-9-9-9-9-9-9-9-9-9-
|-7-7-7-7-7-7-7-7-7-7-7-7-7-7-7-7-|-6-6-6-6-6-6-6-6-6-6-6-6-
    ^   ^   ^   ^   ^   ^   ^   ^     ^   ^   ^   ^   ^   ^

|---------|---------------------------------|
|---------|---------------------------------|
|---------|-8-8-8-8-8-8-8-8-8-8-8-8-8-8-8-8-|
|-9-9-9-9-|-8-8-8-8-8-8-8-8-8-8-8-8-8-8-8-8-|
|-9-9-9-9-|-6-6-6-6-6-6-6-6-6-6-6-6-6-6-6-6-|
|-6-6-6-6-|---------------------------------|
    ^   ^     ^   ^   ^   ^   ^   ^   ^   ^

|-----------------|-----------------|-----------------|
|-----------------|-----------------|-----------------|
|-----------------|-9-9-9-9-9-9-9-9-|-6-6-6-6-6-6-6-6-|
|-6-6-6-6-6-6-6-6-|-9-9-9-9-9-9-9-9-|-6-6-6-6-6-6-6-6-|
|-6-6-6-6-6-6-6-6-|-7-7-7-7-7-7-7-7-|-4-4-4-4-4-4-4-4-|
|-4-4-4-4-4-4-4-4-|-----------------|-----------------|
    ^   ^   ^   ^     ^   ^   ^   ^     ^   ^   ^   ^ 

PLAY AS MANY TIMES THAT YOU WANT
Related for Help Me tab