Guitaretab - guitar tabs
Song name
# A B C D E F G H I J K L M N O P Q R S T U V W X Y Z

Shawn Colvin - Sunny Came Home tab

Sunny came home guitar intro
Shawn Colvin
Intro
e-----14----14----14----14-----------|
b-----15----15----14----14-----------|
g-----16-16-16-16-16-16-16-14-16-----|  x4
d-----16-16-16-16-16-16-16-16-16-----|
a------------------------------------|
E------------------------------------|
[ Tab from: http://www.guitaretab.com/s/shawn-colvin/121419.html ]
e------------------------------------|
b------------------------------------|
g------------------------------------|
d-----0-2-0---------------0-2-0-2-4--|
aŚ2/4-------4-2-0-0---2/4------------|
E------------------------------------|

e------------------------------------|
b------------------------------------|
g------------------------------------|
d-----0-2-2/0---------------0-2-0----|
aŚ2/4-------4-2-0-0---2/4--------4-2-|
E------------------------------------|


GG 90's
tabbed by toby
Related for Sunny Came Home tab