Song name
# A B C D E F G H I J K L M N O P Q R S T U V W X Y Z

Shawn Colvin - Killing The Blues tab

Shawn Colvin - Killing the blues

capo on 1st!

E----
H----
G----
D----
A----
E----
Intro:

E-----------------0---------------0---------------0--------|
H-------0-0-------------0-0-------------0-0------------0-0-|
G-------1-1---1-2-------1-1---1-2-------1-1---1-2------1-1-|
D----------------------------------------------------------|
A---------------2---------------2---------------2----------|
E----0------0--------0------0--------0------0--------0-----|


Leaves were fallin, just like embers,....

E-----------------0---------------0---------------------------------|
H-------0-0-------------0-0-------------0-0-------------3-3-----3---|
G-------1-1---1-2-------1-1---1-2-------1-1---1---------1-1---1---1-|
D-----------------------------------------------2-0-----------------|
A---------------2---------------2-----------------------------------|
E----0------0--------0------0--------0------0--------0------0-------|


E---------------------------------------------0-----|
H-------2-2-------0---2-------2-0---------0-------0-|
G-------2-2-----2---2-2-------2---2-------1-2---2-1-|
D-------2-2---2---------------------2-----2-------2-|
A----0------0---------0-------0---------------------|
E--------------------------------------0----0-----0-|


Somebode said, they saw me.....

E------------------------------------------------0---------------------|
H--------0-------0---------0-------0-----0-------------2-2-------0---2-|
G--------2-------2---------2-------2-----1---1-2---2---2-2-----2---2-2-|
D------1-------1---------1-------1-------2-------------2-2---2---------|
A----2-----0-----------2-----0-----------------------0-----0---------0-|
E------------2-----------------2---------0-----------------------------|
Tap to rate this tab
 
# A B C D E F G H I J K L M N O P Q R S T U V W X Y Z