Shawn Lane - Death Theme tab

This is a tab for the melody of the "Death Theme," composed by Ennio Morricone, as 
by Shawn Lane. The melody is simple enough even for beginners, but don't let that fool 
gotta pour your heart and soul if you want to play this one with the emotion Shawn put into it!

Shawn played this one for his REH video, I believe. RIP.

e|-----------------5-----8----8--7---------5--5-----|
B|-----5-----6--8-----6-------------5---5--------8--|
G|--5-----7-----------------------------------------|
D|--------------------------------------------------|
A|--------------------------------------------------|
E|--------------------------------------------------|

e|------------------------------5-----8-------------|
B|------------------5-----6--8-----6-----12--12--10-|
G|-5--7--9-------5-----7----------------------------|
D|----------9---------------------------------------|
A|--------------------------------------------------|
E|--------------------------------------------------|

e|--------13--12--12--------------------------------|
B|-9--10-----------------------6------------------6-|
G|--------------------9--7--9-----7------9--7--9----|
D|-----------------------------------10-------------|
A|--------------------------------------------------|
E|--------------------------------------------------|

e|--------------------------------------------------|
B|-------6--8-----6--8--10--13--12--10--------------|
G|-7--9--------9------------------------10--14--12--|
D|--------------------------------------------------|
A|--------------------------------------------------|
E|--------------------------------------------------|

e|--------------------------------------------------|
B|--------8--13---12--13--13--15--10--8--10-10--13--|
G|-10--9--------------------------------------------|
D|--------------------------------------------------|
A|--------------------------------------------------|
E|--------------------------------------------------|

e|--------------------------------------------------|
B|--------------------------------------------------|
G|--12--10--12-12--17-------------------------------|
D|---------------------15--14--12--10--12-----------|
A|---------------------------------------------7----|
E|----------------------------------------(use trem)|

e|-----------------5-----8----8--7---------5--5-----|
B|-----5-----6--8-----6-------------5---5--------8--|
G|--5-----7-----------------------------------------|
D|--------------------------------------------------|
A|--------------------------------------------------|
E|--------------------------------------------------|

e|--------------------------------------------------|
B|--------------------------------------------------|
G|--5--7--9-----------------------------------------|
D|--------------------------------------------------|
A|-----------7--------------------------------------|
E|---------(use trem)-------------------------------|

E-mail me at rrrrrrooooootttt@hotmail.com if you want to comment on this tab or just 
about Shawn and music!
Tap to rate this tab
 
# A B C D E F G H I J K L M N O P Q R S T U V W X Y Z