Shawn Lane - Epilogue For Lisa tab

                                                               ^^
----------------------|-------------------------|----------------9--9-|
-----------------6----|---9__________________11-|--11--7---7-___------|
----------------------|-------------------------|---------------------|
------8---------------|-------------------------|---------------------|
----9-----------------|-------------------------|---------------------|
----------------------|-------------------------|---------------------|
                ^^^^^^                ^^^^            ^^^    ^^^^    
--6-------------------|-------------------------|-----------------11--|
----------------------|---------------11__\9__7-|-hb9_9___7--7__------|
----10__-8--8__-------|-----------8\------------|---------------------|
----------------------|-------------------------|---------------------|
----------------------|-------------------------|---------------------|
----------------------|-------------------------|---------------------|
                         ^^^^^^^^^^^^^^^^^^^^^^^
--11_____9--9---------|-------------------------|---------------------|
------------------7___|__6----------------------|---------------------|
----------------------|-------------------------|----------------6----|
----------------------|-------------------------|----------8----------|
----------------------|-------------------------|---4/9__-------------|
----------------------|-------------------------|----------0----------|
                        ^^^^^^^^^^^
----------------------|-6_________--------------|---------------------|
--7_____________------|---------------7__-------|---------------------|
------------------6---|------------6-----6\-----|---------------------|
----------------------|-------------------------|-6\______3--3--------|
----------------------|-------------------------|--------------4------|
----------------------|-------------------------|-----------------4---|
^^^^^^^^^^^
----------------------|-------------------------|---------------------|
----------------------|-------------------------|-----------------11--|
-----------------8__--|---------------------8---|--8--6--6------------|
--------------8-----7\|6-------4----------------|---------------------|
-----------6/---------|-----------6--6__--------|---------------------|
--6-------------------|-------------------------|---------------------|
              ^^^^^^^^^^^^                                   ^^^^^         
----------------------|-------------------------|---------------------|
--11--11___9--9_______|___----------------------|--9______________11--|
----------------------|-------------------6-----|---------------------|
----------------------|--------8----------------|---------------------|
----------------------|----9--------------------|---------------------|
----------------------|-------------------------|---------------------|
                                       ^^^^^^^^^^^^^^     ^^^^
-------------------9__|____6--------------------|--------------9--11--|
--11-----7---7___-----|------6------------------|------/11____--------|
----------------------|---------8--8____________|___8-----------------|
----------------------|-------------------------|---------------------|
----------------------|-------------------------|---------------------|
----------------------|-------------------------|---------------------|
                   ^^^^^          ^^^^^^^              ^^^^^^^^^^^^^^^
----------------------|-----11--11___-----9--9--|---------------------|
-fb9__(9)\____7-------|-------------------------|---7--6____________--|
-----------------8--8-|-------------------------|---------------------|
----------------------|-------------------------|---------------------|
----------------------|-------------------------|---------------------|
----------------------|-------------------------|---------------------|
        ^^^^^^                                                 ^^^
----------------------|-------------------------|--6------------------|
-------------------6--|--7_________________-----|--------------7------|
----------------7-----|---------------------6---|----------6-------6--|
-------------8--------|-------------------------|---------------------|
-----4--9___----------|-------------------------|---------------------|
----------------------|-------------------------|---------------------|
                         ^^^^^^^^^^^              ^^^^^^^
----------------------|-------------------------|---------------------|
----------------------|-------------------------|---------------------|
----------------------|--------------------8__--|------------------/8-|
--6\_______3--3-------|------------------8----7\|--6-----4------------|
-----------------4----|---------------6/--------|-----------6--6__----|
-------------------4--|---6---------------------|---------------------|
          ^^^^^^^^                                 ^^^^^^^^^^^^^^^
----------------------|-------------------------|--14_____________----|
------------------11--|--11_____9--9___---------|---------------------|
---8---6--6-----------|------------------11--11-|------------------11-|
----------------------|-------------------------|---------------------|
----------------------|-------------------------|---------------------|
----------------------|-------------------------|---------------------|
    ^^^^^^^^^^^^^^                                  ^^^^^^^^^^^^^^^^^^
--16______________13--|--14______13-------------|-11__________________|
----------------------|-------------14----------|---------------------|
----------------------|-------------------11__--|---------------------|
----------------------|-------------------------|---------------------|
----------------------|-------------------------|---------------------|
----------------------|-------------------------|---------------------|
^^^           ^^^                            ^^^^^^
___-----7-------------|-------------------------|----6----------------|
------9------11__--9-7|-hb9__9________7---------|------9___________6--|
----8-----------------|------------------8--8___|__-------------------|
----------------------|-------------------------|---------------------|
----------------------|-------------------------|---------------------|
----------------------|-------------------------|---------------------|
  ^^^^^^^^^^^^^^^^^^^^                               ^^^^^^^^^^^^^^^^
----------------------|------------------14-----|---------------------|
----------------------|------------11--14---*12_|_____----------------|
--6-------------------|---------11--------------|---------------------|
----------------------|------11-----------------|---------------------|
----------------------|-------------------------|---------------------|
----------------------|-------------------------|---------------------|
           ^^^^^^                        ^^^^^^^^^^^^^         ^^^
-----------14-----13--|-------------------------|------18__--18__-16--|
----------------------|--14---------------------|-------------------19|
--------11------------|-----15__-13---13-13_____|___------------------|
----------------------|-------------------------|---------------------|
----------------------|-------------------------|---------------------|
----------------------|-------------------------|---------------------|
             ^^^^                    ^^^^^^^
--16--------------14--|--14----13__--13_____----|--2------------------|
--------16--16___-----|-----------------------6-|----6----------------|
----------------------|-------------------------|-------6-------------|
----------------------|-------------------------|----------6------4---|
----------------------|-------------------------|---------------------|
----------------------|-------------------------|---------------------|
             ^^^^^^^^^
----------------------|-------------------------|---------------------|
---4------------------|-------------------------|---------------------|
------4---------------|-----3__-----------------|---------------------|
---------4------------|--4-----------------4----|--4---------4--------|
------------6---------|-----------------------4-|-----------------4---|
----------------------|-------------------------|---------------------|
  ^^^^^^^^^                 ^^^^^^^^^^^
----------------------|-----14---------18/__21__|_____________________|
----------------------|--14---------------------|---------------------|
--3----------------15-|-------------------------|---------------------|
-----------------18---|-------------------------|---------------------|
---------------16-----|-------------------------|---------------------|
-------------14-------|-------------------------|---------------------|
Tap to rate this tab
 
# A B C D E F G H I J K L M N O P Q R S T U V W X Y Z