Song name
# A B C D E F G H I J K L M N O P Q R S T U V W X Y Z

Shawn Lane - Epilogue For Lisa tab

I tabbed it by ear for fixed bridge guitars, to reach a similar sound.

It's the live version who can be listened here:

http://it.youtube.com/watch?v=5alBC4KDXBg

EPILOGUE (for Lisa) Live


E |  |-----------------------------------------------------------------|
B |  |--------7/9-9/11-11-------11/14-11---------9/11-9-7-9b10r9/7-----|
G |  |------6-------------11-11----------------8-----------------------|
D |  |----8------------------------------15/13-------------------------|
A |  |-/9--------------------------------------------------------------|
E |  |-----------------------------------------------------------------|

E |  |-9/11-11-9-9--------------------------6--------------------------|
B |  |--------------------------------6/7-------7----------------------|
G |  |-------------11-11/10---------6-----6---6---6--------------------|
D |  |----------------------------8-----------------6/3-3-3------------|
A |  |----------------------4-4/9---------------------------4----------|
E |  |--------------------------------------------------------4/6------|

E |  |-----------------------------------------------------------------|
B |  |-----------------------------9/11-11-9-9--------7/9-9/11-11------|
G |  |-------8-----------6/8-8-6-6------------------6-------------11-11|
D |  |---6/8---8/6-4------------------------------8--------------------|
A |  |-6-------------6-6-----------------------/9----------------------|
E |  |-----------------------------------------------------------------|

E |  |-11-----------------9/11----------9/11-11-9-9--------------------|
B |  |----11---------9/11------9b10r9/7--------------------------------|
G |  |-------------8--------------------------------11-11/10------6----|
D |  |-------15/13----------------------------------------------8------|
A |  |-------------------------------------------------------/9--------|
E |  |-----------------------------------------------------------------|

E |  |---------9-6-----------------------------------------------------|
B |  |---------------6/7-----------------------------------------------|
G |  |-10b11-6-----6------------------------------8-----------6/8-8-6-6|
D |  |-------------------11/6-4h6p4/3---------6/8---8/6-4--------------|
A |  |--------------------------------4-----6-------------6-6----------|
E |  |----------------------------------4/6----------------------------|

E |  |-----------------14----16-13-14-13-------------------------------|
B |  |-9/11-11-12-9----------------------14----14b16---9-12-11-9-7-9r7-|
G |  |--------------11----11----------------11-------8-----------------|
D |  |-----------------------------------------------------------------|
A |  |-----------------------------------------------------------------|
E |  |-----------------------------------------------------------------|

E |  |-------/11-11-9-9-------------------14/16-------14-13------------|
B |  |-7-------------------------------14-------12----------14-11/9-9--|
G |  |---8-8------------11r10-10-11-15-------------11------------------|
D |  |-----------------------------------------------------------------|
A |  |-----------------------------------------------------------------|
E |  |-----------------------------------------------------------------|

E |  |-16b18-18r16-14-16b17r16-----------------------------------------|
B |  |-------------------------16-16-17/19-19-18-18--------------------|
G |  |----------------------------------------------10b11r10-----------|
D |  |-------------------------------------------------------11--------|
A |  |----------------------------------------------------------11-----|
E |  |-----------------------------------------------------------------|

E |  |-------------------------------------------14-18-21-22b26--------|
B |  |----------------------------------------14-----------------------|
G |  |---7b8-------------------------/3-11-15--------------------------|
D |  |-------9-------7b8---3b4-4r3-------------------------------------|
A |  |-9-------9-9-9-----4---------4-----------------------------------|
E |  |-----------------------------------------------------------------|
Tap to rate this tab
# A B C D E F G H I J K L M N O P Q R S T U V W X Y Z