Song name
# A B C D E F G H I J K L M N O P Q R S T U V W X Y Z

Shawn Mcdonald - Mr Dreamer tab

-------------------------------------------------------------------------------
     Mr. Dreamer - Shawn McDonald
-------------------------------------------------------------------------------

This is an amazing song, trying to convince someone to come to Christ.
 Now I'm not sure of the lyrics so I won't write them all down, if you
 have lyrics go ahead and post them, just don't be mad if I get them 
wrong. And the strumming pattern is insanely difficult, I can't quite do 
it right, but I think he strums the E and A string and lets it ring 
a little, then he strums all 4 a few times. You'll have to figure that 
out on you own. Enjoy

Capo: 3
Fingering is written relative to Capo

Tuning: Standard


 Intro:
e|-----------------------------------------------------------|
B|-----------------------------------------------------------|
G|---0-------------0--------------0--------------0-----------|
D|---0-------------0--------------0--------------9-----------|   x2
A|---5-------------3--------------5--------------7-----------|
E|---3-------------5--------------7--------------8-----------|



Verse:
e|-----------------------------------------------------------|
B|-----------------------------------------------------------|
G|---0-------------0---------------0-------------0-----------|
D|---0-------------0---------------0-------------0-----------|   x3
A|---5-------------3---------------5-------------7-----------|
E|---3-------------5---------------7-------------8-----------|


After last time on verse do this for the bridge thing:
e|---------------------------|     on the  ----------------------|
B|---------------------------|     last    ----------------------|
G|----0------------0---------|     time    -----------0----------|
D|----0------------0---------|   x6 end on -----------0----------|
A|----9------------7---------|      this   -----------7----------|
E|---10------------8---------|             -----------8----------|


Chorus:
e|----------------------------------------------------------|
B|----------------------------------------------------------|
G|---0-------------0---------------0-------------0----------|
D|---0-------------0---------------0-------------0----------|x2 while singing
A|---5-------------3---------------5-------------7----------|
E|---3-------------5---------------7-------------8----------|

then

e|-----------------------------------------------------------| 
B|-----------------------------------------------------------|
G|---0-------------0---------------0-------------0-----------| just once
D|---0-------------0---------------0-------------0-----------|
A|---5-------------3---------------5-------------7-----------|
E|---3-------------5---------------7-------------8-----------|


And thats it, order goes as follows
Intro
Verse
Bridge
Choruse
Bridge
Chorus x2

end on

e|-------|
B|-------|
G|---0---|
D|---0---|
A|---5---|
E|---3---|


I may try the words later in comment form. but not sure.
This is my first tab so let me know how it is. God Bless y'all today
Tap to rate this tab
# A B C D E F G H I J K L M N O P Q R S T U V W X Y Z