Song name
# A B C D E F G H I J K L M N O P Q R S T U V W X Y Z

Shawn Mcdonald - All I Need tab

-----------------------------------------------------------------------------
			     All I Need (Live Version) – Shawn McDonald
-----------------------------------------------------------------------------
Tabbed by: bryanmcdan

Tuning: Standard

I know there’s a version on here already, but this one is much easier to play.

e|------x------x------x------x--------------------------------------------|
B|------x------x------x------x--------------------------------------------|
G|--12--x--11--x--9---x--11--x--------------------------------------------|
D|--12--x--12--x--10--x--12--x--------------------------------------------|
A|--10--x--10--x--10--x--12--x--------------------------------------------|
E|------x------x--8---x--10--x--------------------------------------------|


That's it for the song, you can either finger pick of strum with these. If you 
watch/listen to him playing it live, it matches perfectly.

Thanks, enjoy, and God bless!
Tap to rate this tab
 
# A B C D E F G H I J K L M N O P Q R S T U V W X Y Z