Song name
# A B C D E F G H I J K L M N O P Q R S T U V W X Y Z

Shawn Mcdonald - Rise chords

Highlighted       Show chord diagrams
-------------------------------------------------------------------------------
			     SONG NAME - Band Name
-------------------------------------------------------------------------------
Tabbed by: Joey
Email:joeyreynolds1995@gmail.com

Tuning: DADGBE kepo 3

     D2      G       A      Asus


e|---0-------0-------0-------0------------------------------------------|
B|---3-------0-------0-------3------------------------------------------|
G|---2-------0-------0-------0------------------------------------------|
D|---0-------0-------0-------2------------------------------------------|
A|---0-------2-------5-------0------------------------------------------|
E|---0-------2-------5-------0------------------------------------------|



[Chorus]
D2
Yes I will rise
                                G
Out of these ashes rise
                                        A
From this trouble I have found

And this rubble on the ground
          D2   Asus
I will rise
(Verse1)
D2            G
Cause He Who is in me
 A
Is greater than I will ever be
        D2           Asus
And I will rise
D2
Sometimes my heart is on the ground
                                             G
And hope is nowhere to be found
                                        A
Love is a figment I once knew
                                                          D2      Asus
And yet I hold on to what I know is true

[Chorus]
(Verse2)
D2
Well I keep on coming to this place
                                                  G
That I don't know quite how to face
                                                   A
So I lay down my life in hopes to die
                                       D2    Asus
That somehow I might rise

[Chorus]

Strumming pattern: down downup Downup Downup Downup


May the Lord Jesus Bless you all!
Tap to rate this tab
# A B C D E F G H I J K L M N O P Q R S T U V W X Y Z