Song name
# A B C D E F G H I J K L M N O P Q R S T U V W X Y Z

Shawn Mcdonald - Closer chords

Highlighted       Show chord diagrams
-----------------------------------------------------------------------------
                             CLOSER - Shawn McDonald
-----------------------------------------------------------------------------
Tabbed by: Steph Lindeen

Tuning: Capo 4 or 5

C#
e|-------------|
B|-------------|
G|---------6---|
D|---------6---|
A|---4---------|
E|-------------|

B
e|-------------|
B|-------------|
G|---------4---|
D|---------4---|
A|---2---------|
E|-------------|

A
e|-------------|
B|---2---------|
G|---2---------|
D|-------------|
A|-------------|
E|-------------|

E
e|-------------|
B|-------------|
G|--1----------|
D|-----2-------|
A|-----2-------|
E|-------------|

Cb (I'm actually not sure what the name of this chord is, but let's pretend)
e|-------------|
B|-------------|
G|--------5----|
D|--------5----|
A|--3----------|
E|-------------|

Intro: C#, B, A
       C#, B, A

Verse 1:
   C#          B           A
Looking for a color in a shade of gray 
   C#        B          A
Looking for love in a drop of rain
 C#           B              A
Try to find change from the old mundane
 C#              B         A
But everything I do just feels the same
        C#        B       A
Been spending my life out in the desert
       C#     B           A
Been gone so long feels like forever

Chorus:
A       E      B    C#
I just want to be closer to You
A       E      B    C#
I just want to be closer
A      E
I am Yours 
B        
You can have all of me
 C#           B
Anything, everything
A       E      B    C#
I just want to be closer

Verse 2: {chords same as verse 1}
A day without You is a thousand years
A day without You is a million tears
Tell me, why do I run when I am in fear?
Why do I run when You are so near?
Been spending my life out in the weather
Been gone so long and I need some shelter

Chorus x2

Bridge:
Em
Wherever You go
A             C#
Wherever You are
               Cb
I just want to be there with You
Em
Wherever You go
A             C#
Wherever You are
               Cb
I just want to be there with You

Chorus: 1x, then Verse 1

-fin-
Tap to rate this tab
# A B C D E F G H I J K L M N O P Q R S T U V W X Y Z