Song name
# A B C D E F G H I J K L M N O P Q R S T U V W X Y Z

Shawn Mullins - Lullaby tab

I haven't found a correct version of this song yet.  First, the tuning is not standard, 
is open G.  Im not going to tab the whole song but this should give an idea.  Listening 
the song will give an easy view on the rhythm and   changes.

Tuning: GGDGBD

Chords:
G: 000080
D: 770070
B: 440400
C: 550050
A: 220020

Note: The harmonic is on the 7th fret.
      PM-Palm Mute
      <>-Harmonic
       *-Accent
       h-hammer on

VERSE:
D--0-0-0--------0-0-0-0--0---0-x-x---0-0-0-0-0---|
B--8-8-8-<7>----7-7-7-7--0---0-x-x---5-5-5-5-5---|
G--0-0-0----<7>-0-0-0-0--0h4-4-x-x---0-0-0-0-0---|
D--0-0-0--------0-0-0-0--0---0-x-x---0-0-0-0-0---|
G--0-0-0--------7-7-7-7--4---4-x-4s5-5-5-5-5-5---|
G--0-0-0--------7-7-7-7--4---4-x-4s5-5-5-5-5-5---|
 PM PM *                 PM PM

NOTE:  The G and B chords are palm muted for two strums and then accented on the last, 
muted right after the accent.  Its hard to explain but listening to the song or watching 
should give an idea.

Chorus:

G-D-B-C
G-D-B-C
G-D-B-C-A-C

After the 3rd GDBC progression he does this:

D--0-0-0-0-0--0-0-0----0-0-0-0---|
B--2-2-2-2-3--3-3-2----5-5-5-5---|
G--0-0-0-0-0--0-0-0----0-0-0-0---|
D--0-0-0-0-0--0-0-0----0-0-0-0---|
G--2-2-2-2-2--2-2-2----5-5-5-5---|
G--2-2-2-2-2--2-2-2----5-5-5-5---|
                             *
Tap to rate this tab
# A B C D E F G H I J K L M N O P Q R S T U V W X Y Z