Guitaretab - guitar tabs
Song name
# A B C D E F G H I J K L M N O P Q R S T U V W X Y Z

Shawn Phillips - L Ballade tab

----------------------------------------------------------------------------
			     'L' Ballade - Shawn Phillips
----------------------------------------------------------------------------
Tabbed by: Scott Rode - Acoustic Phases
Email: scottrode@q.com

Tuning: OPEN D

      
 D|--------------|--------------|--------------|-------------|-------------|
 A|--------------|--------------|--------------|-------------|-------------|
#F|------0-----0-|-----8------8-|------5-----5-|-----0-----0-|-----0-----0-|
 D|----0------0--|----8------8--|----5-----5---|----0-----0--|----2-----2--|
 A|--0-------0---|---8------8---|---5-----5----|---0-----0---|---0-----0---|
 D|-0-------0----|-8-------8----|-5-----5------|-0------0----|-0------0----|

      
 D|--------------|--------------|--------------|-------------|-------------|
 A|--------------|--------------|-----2----2---|-------------|-------------|
#F|------0-----0-|-----3------3-|----0----0----|-----1-----1-|-----1-----1-|
 D|----0------0--|---4-------4--|---0----0-----|----0-----0--|----0-----0--|
 A|--0-------0---|--4-------4---|-2-----2------|---2-----2---|---2-----2---|
 D|-0-------0----|-4-------4----|--------------|-2------2----|-2------2----|
[ Tab from: http://www.guitaretab.com/s/shawn-phillips/181307.html ]
      
 D|--------------|--------------|--------------|-------------|-------------|
 A|--------------|--------------|-----2-----2--|-----3----3--|-----3----3--|
#F|------0-----0-|----0-----0---|----1-----1---|----1----1---|----1----1---|
 D|----0------0--|---2-----2----|---0-----0----|---2----2----|---2----2----|
 A|--0-------0---|--0-----0-----|--2-----2-----|--3----3-----|--2----2-----|
 D|-0-------0----|-0-----0------|--------------|-------------|-------------|

 D|--------------|--------------|--------------|-------------|-------------|
 A|------3-----3-|--------------|-----2------2-|-------------|-------------|
#F|----1-----1---|------0-----0-|----0------0--|----5-----7--|-----9----9--|
 D|--2-----2-----|----0-----0---|---0------0---|---5-----7---|---9-----9---|
 A|-0-----0------|---0-----0----|--2------2----|--5-----7----|--9-----9----|
 D|--------------|-0-----0------|--------------|-5-----7-----|-9-----9-----|

                                                             
 D|--------------|--------------|--------------|-------------|-------------|
 A|--------------|--------------|--------------|-------------|-------------|
#F|-------9----9-|-------9----9-|-------9----9-|-------5---5-|-------5---5-|
 D|-----9-----9--|-----9-----9--|-----9----9---|-----5----5--|-----5----5--|
 A|---9------9---|---9------9---|---9-----9----|---5-----5---|---5-----5---|
 D|-9-------9----|-9-------9----|-9------9-----|-5------5----|-5------5----|


 D|--------------|--------------|--------------|-------------|-------------|
 A|--------------|--------------|--------------|-------------|-------------|
#F|-----7-----7--|----3------3--|-----2------2-|-----0-----0-|-----0-----0-|
 D|----7-----7---|---3------3---|----2------2--|----0-----0--|----2-----2--|
 A|---7-----7----|--3------3----|---2------2---|---0-----0---|---0-----0---|
 D|-7------7-----|-3------3-----|-2-------2----|-0------0----|-0------0----|


 D|--------------|--------------| 
 A|--------------|--------------|
#F|-----0------0-|------0-----0-|
 D|----0------0--|-----2-----2--|
 A|---0------0---|---0------0---|
 D|--0------0----|-0-------0----|