Song name
# A B C D E F G H I J K L M N O P Q R S T U V W X Y Z

Shawshank Redeemed - Banana Day tab

-------------------------------------------------------------------------------
                             Banana Day - Shawshank Redeemed
-------------------------------------------------------------------------------
Tabbed by:Alexander Goodman
E-mail:4seampikachu@gmail.com

Tuning:E Flat Standard (Eb G# C# F# A# eb)

e|---------------------------------------------------------------------------|
B|---------------------------------------------------------------------------|
G|---------------------------------------------------------------------------|
D|---------------------------------------------------------------------------|
A|2--------------------------------------------------------------------------|
E|0--------------------------------------------------------------------------|

e|---------------------------------------------------------------------------|
B|---------------------------------------------------------------------------|
G|---------------------------------------------------------------------------|
D|---------------------------------------------------------------------------|
A|---------------------------------------------------------------------------|
E|3b-0-0-0-0-0-0-3b-0-0-0-0-0-0-3b-0-0-0-0-0-0-6-0-0-5-----------------------|

e|---------------------------------------------------------------------------|
B|---------------------------------------------------------------------------|
G|---------------------------------------------------------------------------|
D|---------------------------------------------------------------------------|
A|---------------------------------------------------------------------------|
E|3b-0-0-0-0-0-0-3b-0-0-0-0-0-0-3b-0-0-0-0-0-0-6-0-0-5-----------------------|

e|---------------------------------------------------------------------------|
B|---------------------------------------------------------------------------|
G|---------------------------------------------------------------------------|
D|---------------------------------------------------------------------------|
A|---------------------------------------------------------------------------|
E|3b-0-0-0-0-0-0-3b-0-0-0-0-0-0-3b-0-0-0-0-0-0-6-0-0-5-----------------------|

e|---------------------------------------------------------------------------|
B|---------------------------------------------------------------------------|
G|---------------------------------------------------------------------------|
D|---------------------------------------------------------------------------|
A|---------------------------------------------------------------------------|
E|3b-0-0-0-0-0-0-3b-0-0-0-0-0-0-3b-0-0-0-0-0-0-6-0-0-5-----------------------|

e|---------------------------------------------------------------------------|
B|---------------------------------------------------------------------------|
G|---------------------------------------------------------------------------|
D|---------------------------------------------------------------------------|
A|---------------------------------------------------------------------------|
E|3b-0-0-0-0-0-0-3b-0-0-0-0-0-0-3b-0-0-0-0-0-0-6-0-0-5-----------------------|

e|---------------------------------------------------------------------------|
B|---------------------------------------------------------------------------|
G|---------------------------------------------------------------------------|
D|---------------------------------------------------------------------------|
A|2---2-2-2-2-2-2-2-2-2-2-2-2-2----------------------------------------------|
E|0---0-0-0-0-0-0-0-0-0-0-0-0-0----------------------------------------------|

e|---------------------------------------------------------------------------|
B|---------------------------------------------------------------------------|
G|---------------------------------------------------------------------------|
D|---------------------------------------------------------------------------|
A|---------------------------------------------------------------------------|
E|3b-0-0-0-0-0-0-6-0-0-5-----------------------------------------------------|

e|---------------------------------------------------------------------------|
B|---------------------------------------------------------------------------|
G|---------------------------------------------------------------------------|
D|---------------------------------------------------------------------------|
A|2---2-2-2-2-2-2-2-2-2-2-2-2-2----------------------------------------------|
E|0---0-0-0-0-0-0-0-0-0-0-0-0-0----------------------------------------------|

e|---------------------------------------------------------------------------|
B|---------------------------------------------------------------------------|
G|---------------------------------------------------------------------------|
D|---------------------------------------------------------------------------|
A|---------------------------------------------------------------------------|
E|3b-0-0-0-0-0-0-6-0-0-5-----------------------------------------------------|

e|---------------------------------------------------------------------------|
B|---------------------------------------------------------------------------|
G|---------------------------------------------------------------------------|
D|---------------------------------------------------------------------------|
A|2---2-2-2-2-2-2-2-2-2-2-2-2-2----------------------------------------------|
E|0---0-0-0-0-0-0-0-0-0-0-0-0-0----------------------------------------------|

e|---------------------------------------------------------------------------|
B|---------------------------------------------------------------------------|
G|---------------------------------------------------------------------------|
D|---------------------------------------------------------------------------|
A|---------------------------------------------------------------------------|
E|3b-0-0-0-0-0-0-6-0-0-5-----------------------------------------------------|

e|---------------------------------------------------------------------------|
B|---------------------------------------------------------------------------|
G|---------------------------------------------------------------------------|
D|---------------------------------------------------------------------------|
A|2---2-2-2-2-2-2-2-2-2-2-2-2-2----------------------------------------------|
E|0---0-0-0-0-0-0-0-0-0-0-0-0-0----------------------------------------------|

e|---------------------------------------------------------------------------|
B|---------------------------------------------------------------------------|
G|---------------------------------------------------------------------------|
D|---------------------------------------------------------------------------|
A|---------------------------------------------------------------------------|
E|3b-0-0-0-0-0-0-6-0-0-5-----------------------------------------------------|

e|---------------------------------------------------------------------------|
B|---------------------------------------------------------------------------|
G|---------------------------------------------------------------------------|
D|7--7--7--7--3-3-3----------------------------------------------------------|
A|7--7--7--7--3-3-3----------------------------------------------------------|
E|5--5--5--5--1-1-1-0--0-3-4-0-0-3-4-0-0-3-4-0-0-3---------------------------|

e|---------------------------------------------------------------------------|
B|---------------------------------------------------------------------------|
G|----------------4----------------------------------------------------------|
D|7--7--7--7--7---4----------------------------------------------------------|
A|7--7--7--7--7---2----------------------------------------------------------|
E|5--5--5--5--5---2----------------------------------------------------------|

e|---------------------------------------------------------------------------|
B|---------------------------------------------------------------------------|
G|---------------------------------------------------------------------------|
D|---------------------------------------------------------------------------|
A|2---2---2---2---2--2-------------------------------------------------------|
E|0---0---0---0---0--0---3b--------------------------------------------------|

e|---------------------------------------------------------------------------|
B|---------------------------------------------------------------------------|
G|---------------------------------------------------------------------------|
D|---------------------------------------------------------------------------|
A|2---2-2-2-2-2-2-2-2-2-2-2-2-2-2--------------------------------------------|
E|0---0-0-0-0-0-0-0-0-0-0-0-0-0-0--------------------------------------------|

e|---------------------------------------------------------------------------|
B|---------------------------------------------------------------------------|
G|---------------------------------------------------------------------------|
D|---------------------------------------------------------------------------|
A|2---2---2---2---2--2----------8---8--8--7---5------------------------------|
E|0---0---0---0---0--0---3b--0--6---6---6--5---3-----------------------------|

e|---------------------------------------------------------------------------|
B|---------------------------------------------------------------------------|
G|---------------------------------------------------------------------------|
D|---------------------------------------------------------------------------|
A|2---2---2---2---2--2-------------------------------------------------------|
E|0---0---0---0---0--0---3b--------------------------------------------------|

e|---------------------------------------------------------------------------|
B|---------------------------------------------------------------------------|
G|---------------------------------------------------------------------------|
D|---------------------------------------------------------------------------|
A|2---2-2-2-2-2-2-2-2-2-2-2-2-2-2--------------------------------------------|
E|0---0-0-0-0-0-0-0-0-0-0-0-0-0-0--------------------------------------------|

e|---------------------------------------------------------------------------|
B|---------------------------------------------------------------------------|
G|---------------------------------------------------------------------------|
D|---------------------------------------------------------------------------|
A|2---2---2---2---2--2----------8---8--8--7---5------------------------------|
E|0---0---0---0---0--0---3b--0--6---6---6--5---3-----------------------------|

e|---------------------------------------------------------------------------|
B|---------------------------------------------------------------------------|
G|---------------------------------------------------------------------------|
D|---------------------------------------------------------------------------|
A|---------------------------------------------------------------------------|
E|3b-0-0-0-0-0-0-3b-0-0-0-0-0-0-3b-0-0-0-0-0-0-6-0-0-5-----------------------|

e|---------------------------------------------------------------------------|
B|---------------------------------------------------------------------------|
G|---------------------------------------------------------------------------|
D|---------------------------------------------------------------------------|
A|---------------------------------------------------------------------------|
E|3b-0-0-0-0-0-0-3b-0-0-0-0-0-0-3b-0-0-0-0-0-0-6-0-0-5-----------------------|

e|---------------------------------------------------------------------------|
B|---------------------------------------------------------------------------|
G|---------------------------------------------------------------------------|
D|---------------------------------------------------------------------------|
A|---------------------------------------------------------------------------|
E|3b-0-0-0-0-0-0-3b-0-0-0-0-0-0-3b-0-0-0-0-0-0-6-0-0-5-----------------------|

e|---------------------------------------------------------------------------|
B|---------------------------------------------------------------------------|
G|---------------------------------------------------------------------------|
D|---------------------------------------------------------------------------|
A|---------------------------------------------------------------------------|
E|3b-0-0-0-0-0-0-3b-0-0-0-0-0-0-3b-0-0-0-0-0-0-6-0-0-5-----------------------|

e|---------------------------------------------------------------------------|
B|---------------------------------------------------------------------------|
G|---------------------------------------------------------------------------|
D|---------------------------------------------------------------------------|
A|2---2-2-2-2-2-2-2-2-2-2-2-2-2----------------------------------------------|
E|0---0-0-0-0-0-0-0-0-0-0-0-0-0----------------------------------------------|

e|---------------------------------------------------------------------------|
B|---------------------------------------------------------------------------|
G|---------------------------------------------------------------------------|
D|---------------------------------------------------------------------------|
A|---------------------------------------------------------------------------|
E|3b-0-0-0-0-0-0-6-0-0-5-----------------------------------------------------|

e|---------------------------------------------------------------------------|
B|---------------------------------------------------------------------------|
G|---------------------------------------------------------------------------|
D|---------------------------------------------------------------------------|
A|2---2-2-2-2-2-2-2-2-2-2-2-2-2----------------------------------------------|
E|0---0-0-0-0-0-0-0-0-0-0-0-0-0----------------------------------------------|

e|---------------------------------------------------------------------------|
B|---------------------------------------------------------------------------|
G|---------------------------------------------------------------------------|
D|---------------------------------------------------------------------------|
A|---------------------------------------------------------------------------|
E|3b-0-0-0-0-0-0-6-0-0-5-----------------------------------------------------|

e|---------------------------------------------------------------------------|
B|---------------------------------------------------------------------------|
G|---------------------------------------------------------------------------|
D|---------------------------------------------------------------------------|
A|2---2-2-2-2-2-2-2-2-2-2-2-2-2----------------------------------------------|
E|0---0-0-0-0-0-0-0-0-0-0-0-0-0----------------------------------------------|

e|---------------------------------------------------------------------------|
B|---------------------------------------------------------------------------|
G|---------------------------------------------------------------------------|
D|---------------------------------------------------------------------------|
A|---------------------------------------------------------------------------|
E|3b-0-0-0-0-0-0-6-0-0-5-----------------------------------------------------|

e|---------------------------------------------------------------------------|
B|---------------------------------------------------------------------------|
G|---------------------------------------------------------------------------|
D|---------------------------------------------------------------------------|
A|2---2-2-2-2-2-2-2-2-2-2-2-2-2----------------------------------------------|
E|0---0-0-0-0-0-0-0-0-0-0-0-0-0----------------------------------------------|

e|---------------------------------------------------------------------------|
B|---------------------------------------------------------------------------|
G|---------------------------------------------------------------------------|
D|---------------------------------------------------------------------------|
A|---------------------------------------------------------------------------|
E|3b-0-0-0-0-0-0-6-0-0-5-----------------------------------------------------|

e|---------------------------------------------------------------------------|
B|---------------------------------------------------------------------------|
G|---------------------------------------------------------------------------|
D|7--7--7--7--3-3-3----------------------------------------------------------|
A|7--7--7--7--3-3-3----------------------------------------------------------|
E|5--5--5--5--1-1-1-0--0-3-4-0-0-3-4-0-0-3-4-0-0-3---------------------------|

e|---------------------------------------------------------------------------|
B|---------------------------------------------------------------------------|
G|----------------4----------------------------------------------------------|
D|7--7--7--7--7---4----------------------------------------------------------|
A|7--7--7--7--7---2----------------------------------------------------------|
E|5--5--5--5--5---2----------------------------------------------------------|

e|---------------------------------------------------------------------------|
B|---------------------------------------------------------------------------|
G|---------------------------------------------------------------------------|
D|---------------------------------------------------------------------------|
A|2---2---2---2---2--2-------------------------------------------------------|
E|0---0---0---0---0--0---3b--------------------------------------------------|

e|---------------------------------------------------------------------------|
B|---------------------------------------------------------------------------|
G|---------------------------------------------------------------------------|
D|---------------------------------------------------------------------------|
A|2---2-2-2-2-2-2-2-2-2-2-2-2-2-2--------------------------------------------|
E|0---0-0-0-0-0-0-0-0-0-0-0-0-0-0--------------------------------------------|

e|---------------------------------------------------------------------------|
B|---------------------------------------------------------------------------|
G|---------------------------------------------------------------------------|
D|---------------------------------------------------------------------------|
A|2---2---2---2---2--2----------8---8--8--7---5------------------------------|
E|0---0---0---0---0--0---3b--0--6---6---6--5---3-----------------------------|

e|---------------------------------------------------------------------------|
B|---------------------------------------------------------------------------|
G|---------------------------------------------------------------------------|
D|---------------------------------------------------------------------------|
A|2---2---2---2---2--2-------------------------------------------------------|
E|0---0---0---0---0--0---3b--------------------------------------------------|

e|---------------------------------------------------------------------------|
B|---------------------------------------------------------------------------|
G|---------------------------------------------------------------------------|
D|---------------------------------------------------------------------------|
A|2---2-2-2-2-2-2-2-2-2-2-2-2-2-2--------------------------------------------|
E|0---0-0-0-0-0-0-0-0-0-0-0-0-0-0--------------------------------------------|

e|---------------------------------------------------------------------------|
B|---------------------------------------------------------------------------|
G|---------------------------------------------------------------------------|
D|---------------------------------------------------------------------------|
A|2---2---2---2---2--2----------8---8--8--7---5------------------------------|
E|0---0---0---0---0--0---3b--0--6---6---6--5---3-----------------------------|

e|---------------------------------------------------------------------------|
B|---------------------------------------------------------------------------|
G|---------------------------------------------------------------------------|
D|---------------------------------------------------------------------------|
A|---------------------------------------------------------------------------|
E|3b-0-0-0-0-0-0-3b-0-0-0-0-0-0-3b-0-0-0-0-0-0-6-0-0-5-----------------------|
*Palm Mute This Section*
e|---------------------------------------------------------------------------|
B|---------------------------------------------------------------------------|
G|---------------------------------------------------------------------------|
D|---------------------------------------------------------------------------|
A|---------------------------------------------------------------------------|
E|3b-0-0-0-0-0-0-3b-0-0-0-0-0-0-3b-0-0-0-0-0-0-6-0-0-5-----------------------|

e|---------------------------------------------------------------------------|
B|---------------------------------------------------------------------------|
G|---------------------------------------------------------------------------|
D|---------------------------------------------------------------------------|
A|---------------------------------------------------------------------------|
E|3b-0-0-0-0-0-0-3b-0-0-0-0-0-0-3b-0-0-0-0-0-0-6-0-0-5-----------------------|

e|---------------------------------------------------------------------------|
B|---------------------------------------------------------------------------|
G|---------------------------------------------------------------------------|
D|---------------------------------------------------------------------------|
A|---------------------------------------------------------------------------|
E|3b-0-0-0-0-0-0-3b-0-0-0-0-0-0-3b-0-0-0-0-0-0-6-0-0-5-----------------------|
*Stop Palm Muting*

e|---------------------------------------------------------------------------|
B|---------------------------------------------------------------------------|
G|5---------------5-------4--4--4--4--4--4--4--4-----------------------------|
D|5-------2-------5-------4--4--4--4--4--4--4--4-----------------------------|
A|3-------0-------3-------2--2--2--2--2--2--2--2-----------------------------|
E|---------------------------------------------------------------------------|


e|---------------------------------------------------------------------------|
B|---------------------------------------------------------------------------|
G|---------------------------------------------------------------------------|
D|---------------------------------------------------------------------------|
A|2--------------------------------------------------------------------------|
E|0--------------------------------------------------------------------------|

e|---------------------------------------------------------------------------|
B|---------------------------------------------------------------------------|
G|---------------------------------------------------------------------------|
D|---------------------------------------------------------------------------|
A|---------------------------------------------------------------------------|
E|3b-0-0-0-0-0-0-3b-0-0-0-0-0-0-3b-0-0-0-0-0-0-6-0-0-5-0-0-------------------|

e|---------------------------------------------------------------------------|
B|---------------------------------------------------------------------------|
G|---------------------------------------------------------------------------|
D|---------------------------------------------------------------------------|
A|---------------------------------------------------------------------------|
E|3b-0-0-0-0-0-0-3b-0-0-0-0-0-0-3b-0-0-0-0-0-0-6-0-0-5-0-0-------------------|

e|---------------------------------------------------------------------------|
B|---------------------------------------------------------------------------|
G|---------------------------------------------------------------------------|
D|---------------------------------------------------------------------------|
A|---------------------------------------------------------------------------|
E|3b-0-0-0-0-0-0-3b-0-0-0-0-0-0-3b-0-0-0-0-0-0-6-0-0-5-0-0-------------------|

e|---------------------------------------------------------------------------|
B|---------------------------------------------------------------------------|
G|---------------------------------------------------------------------------|
D|---------------------------------------------------------------------------|
A|---------------------------------------------------------------------------|
E|3b-0-0-0-0-0-0-3b-0-0-0-0-0-0-3b-0-0-0-0-0-0-0-0---------------------------|


e|---------------------------------------------------------------------------|
B|---------------------------------------------------------------------------|
G|--------7-7-7-7-7-7-7------------------------------------------------------|
D|7-------7-7-7-7-7-7-7------------------------------------------------------|
A|7-------5-5-5-5-5-5-5------------------------------------------------------|
E|5--------------------------------------------------------------------------|

e|---------------------------------------------------------------------------|
B|---------------------------------------------------------------------------|
G|---------------------------------------------------------------------------|
D|---------------------------------------------------------------------------|
A|2---2---2---2---2--2-------------------------------------------------------|
E|0---0---0---0---0--0---3b--------------------------------------------------|

e|---------------------------------------------------------------------------|
B|---------------------------------------------------------------------------|
G|---------------------------------------------------------------------------|
D|---------------------------------------------------------------------------|
A|2---2-2-2-2-2-2-2-2-2-2-2-2-2-2--------------------------------------------|
E|0---0-0-0-0-0-0-0-0-0-0-0-0-0-0--------------------------------------------|

e|---------------------------------------------------------------------------|
B|---------------------------------------------------------------------------|
G|---------------------------------------------------------------------------|
D|---------------------------------------------------------------------------|
A|2---2---2---2---2--2----------8---8--8--7---5------------------------------|
E|0---0---0---0---0--0---3b--0--6---6---6--5---3-----------------------------|

e|---------------------------------------------------------------------------|
B|---------------------------------------------------------------------------|
G|---------------------------------------------------------------------------|
D|---------------------------------------------------------------------------|
A|2---2---2---2---2--2-------------------------------------------------------|
E|0---0---0---0---0--0---3b--------------------------------------------------|

e|---------------------------------------------------------------------------|
B|---------------------------------------------------------------------------|
G|---------------------------------------------------------------------------|
D|---------------------------------------------------------------------------|
A|2---2-2-2-2-2-2-2-2-2-2-2-2-2-2--------------------------------------------|
E|0---0-0-0-0-0-0-0-0-0-0-0-0-0-0--------------------------------------------|

e|---------------------------------------------------------------------------|
B|---------------------------------------------------------------------------|
G|---------------------------------------------------------------------------|
D|---------------------------------------------------------------------------|
A|2---2---2---2---2--2----------8---8--8--7---5------------------------------|
E|0---0---0---0---0--0---3b--0--6---6---6--5---3-----------------------------|

e|---------------------------------------------------------------------------|
B|---------------------------------------------------------------------------|
G|---------------------------------------------------------------------------|
D|---------------------------------------------------------------------------|
A|---------------------------------------------------------------------------|
E|3b-0-0-0-0-0-0-3b-0-0-0-0-0-0-3b-0-0-0-0-0-0-6-0-0-5-----------------------|

e|---------------------------------------------------------------------------|
B|---------------------------------------------------------------------------|
G|---------------------------------------------------------------------------|
D|---------------------------------------------------------------------------|
A|---------------------------------------------------------------------------|
E|3b-0-0-0-0-0-0-3b-0-0-0-0-0-0-3b-0-0-0-0-0-0-6-0-0-5-pick slide------------|

e|---------------------------------------------------------------------------|
B|---------------------------------------------------------------------------|
G|---------------------------------------------------------------------------|
D|---------------------------------------------------------------------------|
A|---------------------------------------------------------------------------|
E|3b-0---0-0-----3b-0---0-0-----3b-0---0-0-----6-0-0-5-0-0-------------------|

e|---------------------------------------------------------------------------|
B|---------------------------------------------------------------------------|
G|---------------------------------------------------------------------------|
D|--------------------------------------------------------------9---9--------|
A|--------------------------------------------------------------9---9--------|
E|3b-0---0-0-----3b-0---0-0-----3b-0---0-0-----6-0-0-5-0-0-0----7---7--------|

https://www.facebook.com/pages/Shawshank-Redeemed/309180209107442


************************************

| /   slide up
| \   slide down
| h   hammer-on
| p   pull-off
| ~   vibrato
| +   harmonic
| x   Mute note
| b   Bend
| pb  Pre-bend
| br  Bend release
| pbr Pre-bend release
| brb Bend release bend

************************************

Tap to rate this tab
# A B C D E F G H I J K L M N O P Q R S T U V W X Y Z