Song name
# A B C D E F G H I J K L M N O P Q R S T U V W X Y Z

She And Him - This Is Not A Test tab

Artist: She & Him
Song: This Is Not a Test
Album: Volume One
Composer: Zooey Deschanel
Tuning: Standard

Intro
|-2--2--2-2-2-2--2-2-2-2-2-2-2--0--0--0-0-0-0--0-0-0-0-0-0-0-|
|-3--3--3-3-3-2--2-2-2-2-2-2-2--0--0--0-0-0-2--2-2-2-2-2-2-2-|
|-2--2--2-2-2-2--2-2-2-2-2-2-2--0--0--0-0-0-0--0-0-0-0-0-0-0-|
|-0--0--0-0-0-0--0-0-0-0-0-0-0--2--2--2-2-2-2--2-2-2-2-2-2-2-|
|-------------------------------2--2--2-2-2-0--0-0-0-0-0-0-0-|
|-------------------------------0--0--0-0-0------------------|

|-2--2--2-2-2-2--2-2-2-2-2-2-2--0--0--0-0-0-0--0-0-0-0-0-0-0-|
|-3--3--3-3-3-2--2-2-2-2-2-2-2--0--0--0-0-0-2--2-2-2-2-2-2-2-|
|-2--2--2-2-2-2--2-2-2-2-2-2-2--0--0--0-0-0-0--0-0-0-0-0-0-0-|
|-0--0--0-0-0-0--0-0-0-0-0-0-0--2--2--2-2-2-2--2-2-2-2-2-2-2-|
|-------------------------------2--2--2-2-2-0--0-0-0-0-0-0-0-|
|-------------------------------0--0--0-0-0------------------|

Verse
For those of you who tried but didn't make it
|---2--2--2-2-2------2--2-2-2-2-2-2-2-0--0--0-0-0-0--0-0-0-0-0-0-0-|
|---3--3--3-3-3------2--2-2-2-2-2-2-2-0--0--0-0-0-2--2-2-2-2-2-2-2-|
|---2--2--2-2-2------2--2-2-2-2-2-2-2-0--0--0-0-0-0--0-0-0-0-0-0-0-|
|---0--0--0-0-0------0--0-0-0-0-0-0-0-2--2--2-2-2-2--2-2-2-2-2-2-2-|
|-------------------------------------2--2--2-2-2-0--0-0-0-0-0-0-0-|
|-------------------------------------0--0--0-0-0------------------|

  Settle down it's never what you   think
|-2--2--2-2-2------2--2-2-2-2-2-2-2-0--0--0-0-0-0--0-0-0-0-0-0-0-|
|-3--3--3-3-3------2--2-2-2-2-2-2-2-0--0--0-0-0-2--2-2-2-2-2-2-2-|
|-2--2--2-2-2------2--2-2-2-2-2-2-2-0--0--0-0-0-0--0-0-0-0-0-0-0-|
|-0--0--0-0-0------0--0-0-0-0-0-0-0-2--2--2-2-2-2--2-2-2-2-2-2-2-|
|-----------------------------------2--2--2-2-2-0--0-0-0-0-0-0-0-|
|-----------------------------------0--0--0-0-0------------------|

the summit doesn't differ from the  big dark valley     and the
|---2--2--2-2-2----2--2-2-2-2-2-2-2-1--1-1-1-0--0-0-0-0-0-0-0-|
|---3--3--3-3-3----2--2-2-2-2-2-2-2-2--2-2-2-4--4-4-4-4-4-4-4-|
|---2--2--2-2-2----2--2-2-2-2-2-2-2-1--1-1-1-0--0-0-0-0-0-0-0-|
|---0--0--0-0-0----0--0-0-0-0-0-0-0-0--0-0-0-5--5-5-5-5-5-5-5-|
|--------------------------------------------6--6-6-6-6-6-6-6-|
|-------------------------------------------------------------|

  Valley doesn't differ from the  kitchen     sink
|-0--0--0-0-0----0--0-0-0-0-0-0-0-0--0--0-0-0-0--0-0-0-0-0-0-0-|
|-0--0--0-0-0----0--0-0-0-0-0-0-0-2--2--2-2-2-2--2-2-2-2-2-2-2-|
|-0--0--0-0-0----0--0-0-0-0-0-0-0-0--0--0-0-0-2--2-2-2-2-2-2-2-|
|-2--2--2-2-2----2--2-2-2-2-2-2-2-2--2--2-2-2-2--2-2-2-2-2-2-2-|
|-2--2--2-2-2----2--2-2-2-2-2-2-2-0--0--0-0-0-0--0-0-0-0-0-0-0-|
|-0--0--0-0-0----0--0-0-0-0-0-0-0------------------------------|

this repeats in the same pattern throughout the verses

Chorus
and this is not       a test
|-----------0--0--0-0-0-0--0-0-0-0-0-0-0-|
|-----------0--0--0-0-0-2--2-2-2-2-2-2-2-|
|-----------0--0--0-0-0-2--2-2-2-2-2-2-2-|
|-----------2--2--2-2-2-2--2-2-2-2-2-2-2-|
|-----------2--2--2-2-2-0--0-0-0-0-0-0-0-|
|-----------0--0--0-0-0------------------|

No this is not       a test
|----------0--0--0-0-0-0--0-0-0-0-0-0-0-|
|----------0--0--0-0-0-2--2-2-2-2-2-2-2-|
|----------0--0--0-0-0-2--2-2-2-2-2-2-2-|
|----------2--2--2-2-2-2--2-2-2-2-2-2-2-|
|----------2--2--2-2-2-0--0-0-0-0-0-0-0-|
|----------0--0--0-0-0------------------|

  Taking numbers never made     sense        anyway
|-0--0--0-0-0-0--0-0-0-0-0-0-0--2--2--2-2-2-1--1-1-1-1-1-1-1-2--2--2-2-2-2-|
|-0--0--0-0-0-2--2-2-2-2-2-2-2--3--3--3-3-3-2--2-2-2-2-2-2-2-2--2--2-2-2-2-|
|-0--0--0-0-0-2--2-2-2-2-2-2-2--2--2--2-2-2-1--1-1-1-1-1-1-1-2--2--2-2-2-2-|
|-2--2--2-2-2-2--2-2-2-2-2-2-2--0--0--0-0-0-0--0-0-0-0-0-0-0-0--0--0-0-0-0-|
|-2--2--2-2-2-0--0-0-0-0-0-0-0---------------------------------------------|
|-0--0--0-0-0--------------------------------------------------------------|

the rest of the song COMING SOON...
Tap to rate this tab
# A B C D E F G H I J K L M N O P Q R S T U V W X Y Z