Song name
# A B C D E F G H I J K L M N O P Q R S T U V W X Y Z

She And Him - Black Hole tab

Okay, so this is pretty freaking close to correct if you ask me, but it's 
laid back kind of solo, so you can switch a couple notes around to jazz it
up if you want.  It's a fun solo, great for beginners. Just remember that
the vibrato/bending in the first couple phrases is real slow. Enjoy!  

-Hannah Complin


She & Him, Volume One - "Black Hole" Guitar Solo


right after "I'm alone on a bicycle for two..."



e|---------------------------------------------------------------|
B|---------------------------------------------------------------|
G|----7--9~~~----7--9~~~-9/11--9--7--9--9/11--9--7---------------|
D|--9----------8-------------------------------------------------|
A|---------------------------------------------------------------|
E|---------------------------------------------------------------|

e|---------------------------------------------------------------|
B|----------------------------------------9/12--8--7~~~----------|
G|-----7--9~~~-----7--9~~~--9/11--9--7---------------------------|
D|--9------------8-----------------------------------------------|
A|---------------------------------------------------------------|
E|---------------------------------------------------------------|



e|---------------------------------------------------------------|
B|-------15--17--15--17b18--15--------15--17--15--17b18-15-------|
G|--16----------------------------15-----------------------------|
D|---------------------------------------------------------------|
A|---------------------------------------------------------------|
E|---------------------------------------------------------------|
Tap to rate this tab
# A B C D E F G H I J K L M N O P Q R S T U V W X Y Z