Song name
# A B C D E F G H I J K L M N O P Q R S T U V W X Y Z

She And Him - Sing tab

-------------------------------------------------------------------------------
			     Sing - She & Him
-------------------------------------------------------------------------------
Tabbed by: Jeff
Email:

Tuning:


  G       B/F#         C           A7
e|--3-----------------------------------------------------------------------|
B|--3h5p3-----------------------------2-------------------------------------|
G|--------4--pbr4-2----0--0h2-0---------2-----(x2)--------------------------|
D|------------------2-----------0--2----------------------------------------|
A|--------------------------------------------------------------------------|
E|--------------------------------------------------------------------------|



G                       B/F#         
Talkin on the phone and watchin Cribs
   C                         A7
He doesn't know what kind of guy he is
           G                        B/F#     
He's got a gold plated ceiling, and a tv show, 
     C                A7
a broken heart and he doesn't even know

He's 
Am7     D7
Glad to see you  yes, he's
Am7     D7
Glad to see you
Am7                D7
Open your arms and sing
Am7              D7        (etc.)
The world's been waiting, they've been waiting for years and they just
Gotta hear it; the kids are waiting, they been shedding tears
So open your arms and sing for us

G                              B/F#    
World can be quiet when you're up too late
           C                         A7
I'm just a childhood prisoner of the garden gate
        G                    B/F#  
If it's broke, then kick it. Dust yourself off, 
C                      A7
find a quiet place and have a good laugh

I'm 
Glad to see you  yes, I'm
Glad to see you
Open your arms and sing
The world's been waiting, they've been waiting for years and they just
Gotta hear it; the kids are waiting, they been shedding tears
So open your arms and sing for us

(violin section & bossa nova vox)

Am7 D7

Am7 D7

Am7 D7

Em  Am7

************************************

| /   slide up
| \   slide down
| h   hammer-on
| p   pull-off
| ~   vibrato
| +   harmonic
| x   Mute note
| b   Bend
| pb  Pre-bend
| br  Bend release
| pbr Pre-bend release
| brb Bend release bend

************************************
Tap to rate this tab
# A B C D E F G H I J K L M N O P Q R S T U V W X Y Z