Song name
# A B C D E F G H I J K L M N O P Q R S T U V W X Y Z

She And Him - Black Hole tab

-------------------------------------------------------------------------------
			 Black Hole (solo) - She & Him
-------------------------------------------------------------------------------
Tabbed by:HellBoy9393
Email: geoff911@hotmail.com

Solo is 1:00 into the song.

This is a great beginner guitar slide solo. Not much love around here for M. Ward's slide solos
so here is one. This tab is optimized for the guitar SLIDE; if you don't have one it might be a 
bit awkward to play. Ideally finger-picked.

// or \\ indicates sliding very slowly.

Tuning: Standard (EADGBe)

e|--------------------------------------------------------------------------|
B|--------------------------------------------------------------------------|
G|---4--7--/9 ~ ----3--7--/9 ~ ----/11--9\7--9--/11--9\4--4 ~ --------------|
D|--------------------------------------------------------------------------|
A|--------------------------------------------------------------------------|
E|--------------------------------------------------------------------------|

e|--------------------------------------------------------------------------|
B|-------------------------------------------/12--10--7//-------------------|
G|---4--7--/9 ~ ----3--7--/9 ~ ----/11--9\7---------------------------------|
D|--------------------------------------------------------------------------|
A|--------------------------------------------------------------------------|
E|--------------------------------------------------------------------------|

e|--------------------------------------------------------------------------|
B|--/12--15/17\15--/18--17\15 ~ --------------------------------------------|
G|--------------------------------------------------------------------------|
D|--------------------------------------------------------------------------|
A|--------------------------------------------------------------------------|
E|--------------------------------------------------------------------------|

e|--------------------------------------------------------------------------|
B|--/11--15/17\15--/18--17\15//19 ~ ----------------------------------------|
G|--------------------------------------------------------------------------|
D|--------------------------------------------------------------------------|
A|--------------------------------------------------------------------------|
E|--------------------------------------------------------------------------|

************************************

| /   slide up
| \   slide down
| ~   vibrato

************************************ 
Tap to rate this tab
 
# A B C D E F G H I J K L M N O P Q R S T U V W X Y Z