Song name
# A B C D E F G H I J K L M N O P Q R S T U V W X Y Z

She And Him - Ill Be Home For Christmas tab

e]-------------------------------------------------------------------|
b]-------------------------------------------------------------------|
g]----6-5-6s8-6------------------------------------------------------|
d]--------------6-6-------------4-6-8--6-8-8s9-8---------------4-6-8-|
a]------------------------4-6-8------------------6--------4-6-8------|
e]------------------4-6-8---------------------------4-6-8------------|

e]----------------------------9--11--13-12-11-11s9-9s6-4-4s6-4s6-2-4-2-1-2-1--|
b]--------------------------s9--11--13--12-11-11s9-9s6-4-4s6-4s6-2-4-2-1-2-1--|
g]-----6--8--6--6s11-11-10----------------------------------------------------|
d]----------------------------------------------------------------------------|
a]----------------------------------------------------------------------------|
e]----------------------------------------------------------------------------|

e]-----------------------------------------------------|
b]--2--1-----------------------------------------------|
g]-1--1------------------------------------------------|
d]-----------------------------------------------------|
a]-----------------------------------------------------|
e]-----------------------------------------------------|

This is my first tab. So it's not that organized, but you'll figure it out...peace
Tap to rate this tab
# A B C D E F G H I J K L M N O P Q R S T U V W X Y Z