Song name
# A B C D E F G H I J K L M N O P Q R S T U V W X Y Z

She And Him - Brand New Shoes tab

                                          BRAND NEW SHOES - She & Him.
                                             Lyrics by Zooey Deschanel.

( I had some brand new shoes. They were all red, but they gave me the blues.)
e|---------------------------------------------------------------------------|
B|---0-0----0-0------------------------------------------------------------- |
G|---0-0----0-0------------------------------------------------------------- |
D|-----------------2------4------------------------------------------------- |
A|-----------------2------4------------------------------------------------- |
E|-3------0------3------5----------------------------------------------------|

(And they're running away. They left me a letter.)
e|-----------------------------------------------------------------------------|
B|---0-0-----------1-1-----2-2----2----2----2----2-----------------------------|
G|---0-0-----------0-0---------------------------------------------------------|
D|----------3-3------------2-2----2----2----2----2-----------------------------|
A|----------2-2---3-----0-------0----0----0----0-------------------------------|
C|-3------3--------------------------------------------------------------------|

(It's just like you told me it'd be. )
e|------------------------------------------------------------------------------|
B|------------------------------------------------------------------------------|
G|------------------------------------------------------------------------------|
D|----4-4---4-4--4-4---4-4----------------------------------------- ------------|
A|----5-5---5-5--5-5---5-5------------------------------------------------------|
E|--7-----6-----5-----4---------------------------------------------------------|

(It's nothing, nothin', nothin', nothin', nothin' at all.)
e|-------------------------------------------------------------------------------------|
B|-------------------------------------------------------------------------------------|
G|-------------------------------------------------------------------------------------|
D|----2-2--2-2--4-4--4-4---------------------------------------------------------------|
A|----2-2--2-2--4-4--4-4---------------------------------------------------------------|
E|--3-----3----5----5------------------------------------------------------------------|

And it repeats for the whole rest of the song, but with different lyrics!
This was my first time making a tab on here. I tried my best, and I hope you all enjoyed it. :)
Tap to rate this tab
# A B C D E F G H I J K L M N O P Q R S T U V W X Y Z