Song name
# A B C D E F G H I J K L M N O P Q R S T U V W X Y Z

She Keeps Bees - Cage Match tab

--------------------------------------------------------------------------
			     Cage Match - She Keeps Bees
--------------------------------------------------------------------------
Tabbed by:bcam
Email:bcam_9@web.de


A pretty unkown but inspiring song.
I was too lazy to tab the whole strumming rythm, but it`s easy to figure out.

Standard tuning.

/ slide

1st part
E----------------------------------------------------|
B----------------------------------------------------|
G---2---2-2-2-2/6---6-6-6-6--------------------------|
D---2---2-2-2-2/6---6-6-6-6-6---6-6-6-6--4--4-4-4-4--|
A---1---1-1-1-1/4---4-4-4-4-6---6-6-6-6--4--4-4-4-4--|
E---------------------------4---4-4-4-4--2--2-2-2-2--|

I can say...

2nd part
E----------------------------------------------------|
B----------------------------------------------------|
G---6---6-6-6-6/9---9-9-9-9/4---4-4-4-4/2---2-2-2-2--|
D---6---6-6-6-6/9---9-9-9-9/4---4-4-4-4/2---2-2-2-2--|
A---4---4-4-4-4/7---7-7-7-7/2---2-2-2-2/0---0-0-0-0--|
E----------------------------------------------------|

Can you tell, tell me now...
Tap to rate this tab
 
# A B C D E F G H I J K L M N O P Q R S T U V W X Y Z