Song name
# A B C D E F G H I J K L M N O P Q R S T U V W X Y Z

She Wants Revenge - Red Flags And Long Nights tab

-------------------------------------------------------------------------------
			     SONG NAME - Band Name
-------------------------------------------------------------------------------
Tabbed by:Alex
Email:

Tuning:standard

intro/verse guitar 1:
e|---------------------------------------------------------------------------|
B|-----------4-------4-------4-------3---------------------------------------|
G|-------5-5-5-5-5-5-5-5-5-5-5-5-5-5-5----&repeat----------------------------|
D|---------------------------------------------------------------------------|
A|---------------------------------------------------------------------------|
E|---------------------------------------------------------------------------|

guitar 2/bass:
e|---------------------------------------------------------------------------|
B|---------------------------------------------------------------------------|
G|---------------------------------------------------------------------------|
D|---------------------------------------------------------------------------|
A|---------------------------------------------------------------------------|
E|-----8-8-8-8-8-8-8-8-8-8-8-8-8-8-8-8---------------------------------------|

change 1:08:
e|---------------------------------------------------------------------------|
B|---------------------------------------------------------------------------|
G|---------------------------------------------------------------------------|
D|---------------------------------------------------------------------------|
A|---------------------------------------------------------------------------|
E|-----10--10-10-10-10-10-10-10-10--9--9-9-9-9-9-9-9-9-----------------------|

e|---------------------------------------------------------------------------|
B|---------------------------------------------------------------------------|
G|---------------------------------------------------------------------------|
D|---------------------------------------------------------------------------|
A|---------------------------------------------------------------------------|
E|-----8-8-8-8-8-8-8-8-8-8-8-8-8-8-8-8---------------------------------------|

chorus:
e|---------------------------------------------------------------------------|
B|---------------------------------------------------------------------------|
G|---------------------------------------------------------------------------|
D|---------------------------------------------------------------------------|
A|---------------------------------------------------------------------------|
E|-----9-9-9-9-9-9-9-9-10-10-10-10-10-10-10-10---&repeat---------------------|
            “you can occu-py...”


change in verse 2:
e|---------------------------------------------------------------------------|
B|---------------------------------------------------------------------------|
G|---------------------------------------------------------------------------|
D|---------------------------------------------------------------------------|
A|-----9-9-9-9-9-9-9-9-10-10-10-10-10-10-10-10----&repeat--------------------|
E|---------------------------------------------------------------------------|
       “she dont need a-thing...”

so thats basically the whole song. its based around Cm but they go out of key to make 
dark sound they like. I’m sure justin does some improvising with what is denoted here as 
1 & if you listen to the song you could probably pick it out. cheers!


| /  slide up
| \  slide down
| h  hammer-on
| p  pull-off
| ~  vibrato
| +  harmonic
| x  Mute note
===============================================================================
Tap to rate this tab
# A B C D E F G H I J K L M N O P Q R S T U V W X Y Z