Song name
# A B C D E F G H I J K L M N O P Q R S T U V W X Y Z

She Wants Revenge - Love Me tab

-------------------------------------------------------------------------------
			     She Wants Revenge - Love Me
-------------------------------------------------------------------------------
Tabbed by: A Dead Fly
Email: azlizard13@yahoo.com

Tuning: Standard

The Snythesizer plays this through the whole song, and since it's the
only thing that plays at the beggining you can play it

e|----------------|----------------|----------------|----------------|
B|----------------|----------------|----------------|----------------|
G|-10-------------|----------------|-10------9------|----------------|
D|----------------|----------------|----------------|----------------|
A|----------------|----------------|----------------|----------------|
E|----------------|----------------|----------------|----------------|

e|----------------|----------------|----------------|----------------|
B|----------------|----------------|----------------|----------------|
G|-9-------7------|----------------|--7------6------|----------------|
D|----------------|----------------|----------------|----------------|
A|----------------|----------------|----------------|----------------|
E|----------------|----------------|----------------|----------------|

Then when the main part comes in:

(Strum chords slightly Slow to make the notes sound out seperately)

e|-13-------------|----------------|-13-----15-12---|----------------|
B|----------------|----------------|----------------|----------------|
G|----------------|----------------|----------------|----------------|
D|----------------|----------------|----------------|----------------|
A|----------------|----------------|----------------|----------------|
E|----------------|----------------|----------------|----------------|

e|-12-----10-13---|----------------|-10-----12-9----|----------------|
B|----------------|----------------|----------------|----------------|
G|----------------|----------------|----------------|----------------|
D|----------------|----------------|----------------|----------------|
A|----------------|----------------|----------------|----------------|
E|----------------|----------------|----------------|----------------|

e|-13-------------|-13--17---------|-13-----15-12---|-12--17---------|
B|----------------|-13-------------|----------------|-13-------------|
G|----------------|-14-------------|----------------|-14----------14-|
D|----------------|-15------15-----|----------------|-14------14-----|
A|----------------|-------------15-|----------------|----------------|
E|----------------|----------------|----------------|----------------|

e|-12-----10-13---|----------------|-10-----12-9----|----------------|
B|----------------|-10-------------|----------------|-9--------------|
G|----------------|-10--10---------|----------------|-10--10------10-|
D|----------------|-12------12-----|----------------|-11------11-----|
A|----------------|-12----------12-|----------------|----------------|
E|----------------|----------------|----------------|----------------|

e|-13-------------|-13-------------|-13-----15-12---|-12-------------|
B|----------------|-13-------------|----------------|-13--13--13--15-|
G|----------------|-14--14------14-|----------------|-14-------------|
D|----------------|-15------15-----|----------------|-14-------------|
A|----------------|----------------|----------------|----------------|
E|----------------|----------------|----------------|----------------|

e|-12-----10-13---|----------------|-10-----12-9----|----------------|
B|----------------|-10-------------|----------------|-9--------------|
G|----------------|-10--10---------|----------------|-10--10------9--|
D|----------------|-12------12-----|----------------|-11------11-----|
A|----------------|-12----------12-|----------------|----------------|
E|----------------|----------------|----------------|----------------|

e|-13-------------|-13----------13-|-13-----12-17---|-12-------------|
B|----------------|-13----------13-|----------------|-13--13------13-|
G|----------------|-14--14---------|----------------|-14------14-----|
D|----------------|-15------15-----|----------------|-14-------------|
A|----------------|-15-------------|----------------|-12-------------|
E|----------------|-13-------------|----------------|----------------|

e|-17--------18---|-13----------18-|-18-----19------|-13-------------|
B|--------20------|-15--15---------|----------------|-15--15---------|
G|----------------|-15------15-----|----------------|-16------16-----|
D|----------------|-15----------15-|----------------|-15----------15-|
A|----------------|-13-------------|----------------|----------------|
E|----------------|----------------|----------------|----------------|

Rest for a little bit, or you can go back and play the Background 
Snythesizer during the pause

Then

e|-13-------------|----------------|-13-----15-12---|----------------|
B|----------------|----------------|----------------|----------------|
G|----------------|----------------|----------------|----------------|
D|----------------|----------------|----------------|----------------|
A|----------------|----------------|----------------|----------------|
E|----------------|----------------|----------------|----------------|

e|-12-----10-13---|----------------|-10-----12-9----|----------------|
B|----------------|----------------|----------------|----------------|
G|----------------|----------------|----------------|----------------|
D|----------------|----------------|----------------|----------------|
A|----------------|----------------|----------------|----------------|
E|----------------|----------------|----------------|----------------|

e|-13-------------|-13--17---------|-13-----15-12---|-12--17---------|
B|----------------|-13-------------|----------------|-13-------------|
G|----------------|-14-------------|----------------|-14----------14-|
D|----------------|-15------15-----|----------------|-14------14-----|
A|----------------|-------------15-|----------------|----------------|
E|----------------|----------------|----------------|----------------|

e|-12-----10-13---|----------------|-10-----12-9----|----------------|
B|----------------|-10-------------|----------------|-9--------------|
G|----------------|-10--10---------|----------------|-10--10------10-|
D|----------------|-12------12-----|----------------|-11------11-----|
A|----------------|-12----------12-|----------------|----------------|
E|----------------|----------------|----------------|----------------|

e|-13-------------|-13-------------|-13-----15-12---|-12-------------|
B|----------------|-13-------------|----------------|-13--13--13--15-|
G|----------------|-14--14------14-|----------------|-14-------------|
D|----------------|-15------15-----|----------------|-14-------------|
A|----------------|----------------|----------------|----------------|
E|----------------|----------------|----------------|----------------|

e|-12-----10-13---|----------------|-10-----12-9----|----------------|
B|----------------|-10-------------|----------------|-9--------------|
G|----------------|-10--10---------|----------------|-10--10------9--|
D|----------------|-12------12-----|----------------|-11------11-----|
A|----------------|-12----------12-|----------------|----------------|
E|----------------|----------------|----------------|----------------|

And that's the end, the only other thing is during that bridge from
2:05 - 2:30 the snythesizer plays this instead of its main theme

e|----------------|----------------|----------------|----------------|
B|----------------|----------------|----------------|----------------|
G|-10-------------|----------------|-10-----14------|----------------|
D|----------------|----------------|----------------|----------------|
A|----------------|----------------|----------------|----------------|
E|----------------|----------------|----------------|----------------|

e|----------------|----------------|----------------|----------------|
B|----------------|----------------|----------------|----------------|
G|-14------15-----|----------------|-15-----16------|----------------|
D|----------------|----------------|----------------|----------------|
A|----------------|----------------|----------------|----------------|
E|----------------|----------------|----------------|----------------|

And if you're on acoustic, here is the chord progresstion through the whole song:

   F                Am               Dm               C#
e|-1--------------|-0--------------|-1--------------|-4--------------|
B|-1--------------|-1--------------|-3--------------|-6--------------|
G|-2--------------|-2--------------|-2--------------|-6--------------|
D|-3--------------|-2--------------|-0--------------|-6--------------|
A|-3--------------|-0--------------|----------------|-4--------------|
E|-1--------------|----------------|----------------|----------------|

Once again except during the bridge where it changes to:

   F                Am               A#               Bm/5-
e|-1--------------|-0--------------|-1--------------|-1--------------|
B|-1--------------|-1--------------|-3--------------|-3--------------|
G|-2--------------|-2--------------|-3--------------|-4--------------|
D|-3--------------|-2--------------|-3--------------|-3--------------|
A|-3--------------|-0--------------|-1--------------|----------------|
E|-1--------------|----------------|----------------|----------------|

A very emotional song, probably my favorite by She Wants Revenge

Email me at azlizard13@yahoo.com

Please give me credit if you use the tab for a video

Tap to rate this tab
 
# A B C D E F G H I J K L M N O P Q R S T U V W X Y Z