Song name
# A B C D E F G H I J K L M N O P Q R S T U V W X Y Z

She Wants Revenge - Take The World tab

Tuning:

My first tab by ear. Think it's just listen to the song for the timeing
e|---------------------------------------------------------------------------|
B|---------------------------------------------------------------------------|
G|----5-------5-----5-------5-----5-------5------5---------------------------|
D|3 3---3 3 3---3 3---3 3 3---3 3---3 3 3----3 3----3 3 3--------------------|
A|---------------------------------------------------------------------------|
E|---------------------------------------------------------------------------|

e|---------------------------------------------------------------------------|
B|---------------------------------------------------------------------------|
G|6----3---------------------------------------------------------------------|    
D|6----3---------------------------------------------------------------------|
A|4----1---------------------------------------------------------------------|
E|---------------------------------------------------------------------------|

Tap to rate this tab
# A B C D E F G H I J K L M N O P Q R S T U V W X Y Z