Song name
# A B C D E F G H I J K L M N O P Q R S T U V W X Y Z

She Wants Revenge - I Dont Wanna Fall In Love tab

|-----------------------------------------|
|-----------------------------------------|
|-----------------------------------------|
|-----------------------------------------|
|-----------3-3-3-3-3-----------3-3-5-5-3-|
|-5-5-5-5-5-----------5-5-5-5-5-----------|

|------------------------------------------|
|------------------------------------------|
|------------------------------------------|
|------------------------------------------|
|-2-2-2-2-2-3-3-3-3-3-2-2-2-2-2-3-3-5-5-3--|
|------------------------------------------|

|------------------------------------------|
|------------------------------------------|
|------------------------------------------|
|------------------------------------------|
|---------5-5-5-5-3-3-3-3------------------|
|-5-5-5-5-----------------3-3-3-3-3--------|

|-7-7-7-7-7-5--------------|
|-7-7-7-7-7-5--5-5-5-5-5-4-|
|-7-7-7-7-7-5--------------|
|--------------------------|
|--------------------------|
|--------------------------|
Tap to rate this tab
# A B C D E F G H I J K L M N O P Q R S T U V W X Y Z