Song name
# A B C D E F G H I J K L M N O P Q R S T U V W X Y Z

Shearer - Run Enemy tab

-------------------------------------------------------------------------------
                             RUN ENEMY - Shearer
-------------------------------------------------------------------------------
http://www.shearer.de/

Tabbed by: Jan Wartenberg

Tuning: Standard

(Intro)
C# F# A# F#

Only bass notes:
e ------------------------------------|
B ------------------------------------|
G ------------------------------------|
D ------------------------------------|
A ---4-4-4-4-4---------1-1-1-1-1------|
E --------------2-2---------------2-2-|

C# F# A# F# (only bass)
i've tasted fruit, forbidden you
i'm lost in love, entwined around you

A                B                    (full power chords)
don't walk into, don't run into
C#              E
wild medicines will fly us through
A          B            F#
run enemy, we're comin' true

C# F# A# F#
being near to you, getting lost in you
i cannot ever get enough of you

A                B             (muted, or only bass note)
don't walk into, don't run into
C#              E
wild medicines will fly us trough
A          B            F#
run enemy, we're comin' true

       A                   B          (full power chords)
and it feels like there is no one left
        C#                    E
when we break into the hidden chest
       A                B
when i left you like a tender bloom
     C#                   E
my heart gets weak and i loose control

A   B   C#

C# F# A# F# (again bass)

C# F# A# F#
the outer space, or just this place
can't capture some, or a hint of your grace

A                B             (palm muted, or only softly hit)
don't walk into, don't run into
C#              E
wild medicines will fly us trough
A          B            F#
run enemy, we're comin' true

       A                   B          (full power chords)
and it feels like there is no one left
        C#                    E
when we break into the hidden chest
       A                B
when i left you like a tender bloom
     C#                   E
my heart gets weak and i loose control

A   B   C#


(interlude)                            (3x)
e -------------------------------------|
B -------------------------------------|
G -------------------------------9---9-|
D ----7---7---9--9----11---11----------|
A -----------------------------7---7---|
E --5---5---7---7---9----9-------------|

alternatively                          (3x)
e ---------------------------------------|
B ---------------------------------------|
G ---------------------------------9---9-|
D ----7---7---9---9-----11----11--9------|
A ---7-------9--------11---------7---7---|
E --5---5---7---7---9------9-------------|

F# C# E B (4x) (full power chords, figure out rhythm)

       A                   B           (muted, or only bass note)
and it feels like there is no one left
        C#                    E
when we break into the hidden chest
       A                B
when i left you like a tender bloom
     C#                   E
my heart gets weak and i loose control

A B C# E
and i feel your flesh and i smell the air
i unbolt my heart to let you share
i am ready to dissolve into you

(last part twice, with full power chords when repeated)

(outro)
A B C# E
Tap to rate this tab
# A B C D E F G H I J K L M N O P Q R S T U V W X Y Z