Song name
# A B C D E F G H I J K L M N O P Q R S T U V W X Y Z

Shearwater - On The Death Of The Waters tab

-----------------------------------------------------------------------------
                   ON THE DEATH OF THE WATERS - Shearwater
-----------------------------------------------------------------------------
Tabbed by: Adam Chandler

Tuning: Standard

First time writing a tab, so comment if you think it could be improved!

e|------------0--0-----------------------------------------|
B|------------0--0------------------3------3----------3--2-|
G|------------0--0-------4--2-------0------0----------2--2-|
D|------------2--2-------4----------0------0----------2--2-|
A|------------2--2-------6----------2------2----------0--0-|
E|------------0--0-------0----------3------3----------0--0-|
   From the wreck of the ark to the fading day of our star

e|------------0-------------------------0-5----0-------------------|
B|------------1--3--------------------0--------1--3---------3------|
G|------------0--0------------------0----------0--0---------0------|
D|------------2--2----------------2------------2--2---------0------|
A|------------3--3--------------2--------------3--3---------2------|
E|------------0---------------0----------------0------------3------|
   The light races, the light drags, the moon rises, the moon sags

e|-0------------------0-5-------------------------0-------0--------------|
B|-3---------1------1-----------------------------1----3--0------4-------|
G|-2---------2----2-------------------------------0-------2----4---4---2-|
D|-0---------2--2---------------------------------2-------2--4-------4---|
A|-0---------0------------------------------------3-------2--------------|
E|-2----------------------------------------------0----------------------|
   Over the rolling waves, and your hands on the balcony

e|--------0--0----------------------------------------------------|
B|--------0--0--------------------------3---------3----------3--2-|
G|--------0--0------------4--2----------0---------0----------2--2-|
D|--------2--2------------4-------------0---------0----------2--2-|
A|--------2--2------------6-------------2---------2----------0--0-|
E|--------0--0------------0-------------3---------3----------0--0-|
   As a spine pricks the world, and the shudder, deep, is unheard

e|----------0-----------------------0-5---0----------------|
B|----------1----3----------------0-------1--3---------3---|
G|----------0----0--------------0---------0--0---------0---|
D|----------2----2------------2-----------2--2---------0---|
A|------2---3----3----------2-------------3--3---------2---|
E|----------0-------------0---------------0------------3---|
   But you feel it, oh my god,  as the spindle flies apart

e|------------0-------------------0-5-10-------------------0------|
B|------------3----------1------1--------------------------1----3-|
G|------------2----------2----2----------------------------0------|
D|------------0----------2--2------------------------------2------|
A|------------0----------0---------------------------------3------|
E|------------2--------------------------------------------0------|
   Turn your bow to the biggest wave, but your angel's on holiday

e|-----------0---------------------------|
B|-----------0-----------4---------------|
G|-----------2-----------4---------------|
D|-----------2-----------4---------------|
A|-----------2---------------------------|
E|---------------------------------------|
   And that wave rises slowly and breaks

e|-2--2--2--2--0--0--0--0--2--2--2--2--0--0--0--0--2--2--2--2--0--0--0--0-|
B|-3--3--3--3--0--0--0--0--3--3--3--3--0--0--0--0--3--3--3--3--0--0--0--0-|
G|-2--2--2--2--0--0--0--0--2--2--2--2--0--0--0--0--2--2--2--2--0--0--0--0-|
D|-0--0--0--0--2--2--2--2--0--0--0--0--2--2--2--2--0--0--0--0--2--2--2--2-|
A|-0--0--0--0--2--2--2--2--0--0--0--0--2--2--2--2--0--0--0--0--2--2--2--2-|
E|-0--0--0--0--0--0--0--0--0--0--0--0--0--0--0--0--0--0--0--0--0--0--0--0-|


e|-----0---------0-2---7-7-7---0-3-12-7-3-0-3-5-12-12-12-|
B|-0-----4-0---4-----------5------------0---0-3----------|
G|-----------2-------------4-----------------------------|
D|---4---------------------------------------------------|
A|-------------------------------------------------------|
E|-------------------------------------------------------|


e|-7---3-7-12-7-3-0-5-12-12-12-----8--8--5-5-2-2---2-2-3-----0-7-12-|
B|--------------0---2--------------10-10-7-7-4-4-0------------------|
G|-------------------------------2----9--------4-----4-5---0--------|
D|-7----------------------------------------------------------------|
A|------------------------------------------------------------------|
E|------------------------------------------------------------------|

e|-------0-2-3-----2-0---0---------|
B|-1---3-----------------0---4-----|
G|-0-0---------------0---2-------2-|
D|-2-----------0-2-4-----2-----4---|
A|-3---------------------2---------|
E|---------------------------------|

Tap to rate this tab
# A B C D E F G H I J K L M N O P Q R S T U V W X Y Z